Song name
# A B C D E F G H I J K L M N O P Q R S T U V W X Y Z

Mario - Luigis Mansion tab

Luigis Mansion Theme:

E|-0-0-0-0----0-----------------------------|
B|----------1---4--0---3-3-3-3-0-3-1-----0--|
G|-------------------------------------3----|
D|------------------------------------------|
A|------------------------------------------|
E|------------------------------------------|


E|-0-0-0-0----0--------------------0--------|
B|----------1---4--0---3-3-3-3-0-3---3-1-0--|
G|-----------------------------------------3|
D|------------------------------------------|
A|------------------------------------------|
E|------------------------------------------|

Tabbed by Tscholle
Tap to rate this tab
 
# A B C D E F G H I J K L M N O P Q R S T U V W X Y Z