Song name
# A B C D E F G H I J K L M N O P Q R S T U V W X Y Z

Marion Raven - Crawl tab

Help us improve GuitareTab! Take a short survey!
Song: Crawl
Artist: Two Tongues
Tabbed by: Vince DeFilippo (www.myspace.com/exitclevelandband)
Email: mrshinky606@yahoo.com

TWO TONGUES (http://www.myspace.com/twotonguesrock)

NOTE: This tab will not show you the structure of the song but only the parts.
The structure isn't two hard, and I know most people
who are learning this probably just want the opening anyway.

Tuning: Standard Capo on 2nd Fret

OPENING/VERSE
e|-----------------------------|
b|-----------------------------|
g|-7-----7/6-----6/2----2/4----|
d|---0-------0------0------0---|
a|-----------------------------|
e|-----7-------5------2------3-|

VERSE LEAD
e|---------------------------------------|
b|---------------------------------------|
g|-7-7-7/9-9-9-9/14-14-14-14/12-12-12-12-|
d|---------------------------------------|
a|-5-5-5/7-7-7-7/12-12-12-12/10-10-10-10-|
e|---------------------------------------|

VERSE RHYTHM
e|-------------------------------|
b|-------------------------------|
g|-------------------------------|
d|-9-9-9/7-7-7-7/4-4-4-4/5-5-5-5-|
a|-9-9-9/7-7-7-7/4-4-4-4/5-5-5-5-|
e|-7-7-7/5-5-5-5/2-2-2-2/3-3-3-3-|

CHORUS CHORDS (not positive on the chorus, but it doesnt sound bad played like this)
e|---------------------------------|
b|---------------------------------|
g|---------------------------------|
d|-4-5-4-7-------------------------|
a|-4-5-4-7-------------------------|
e|-2-3-2-5-------------------------|

BRIDGE CHORDS
e|--------                              ---------|
b|--------  Then at the end of this     ---------|
g|-------- rhythm, you want to slide    ---------|
d|-5-7-8-9  down to the first two       -9/7-7/5-|
a|-5-7-8-9    like so ----------->      -9/7-7/5-|
e|-3-5-6-7                              -7/5-5/3-|
Related for Crawl tab