Song name
# A B C D E F G H I J K L M N O P Q R S T U V W X Y Z

Marion Raven - End Of Me tab

End Of Me - Civet

Intro
e|-----------------------------------------|
b|-----------------------------------------|
g|--------------------5--------------------|
d|--9--7--9--9--5--7-----7--5--------------|
a|--9--7--9--9--5--7-----------7--5--------|
E|--7--5--7--7--3--5-----------------7--5--|

Verse
e|--------------|
b|--------------|
g|--------------|
d|--9--5--7--9--|
a|--9--5--7--9--|
E|--7--3--5--7--|

Chorus
e|--------------------------------|
b|--------------------------------|
g|-----------5--------------------|
d|--9--5--7-----7--5--------------|
a|--9--5--7-----------7--5--------|
E|--7--3--5-----------------7--5--|

Outro
e|-----------|-----|
b|-----------|-----|
g|-----------|-----|
d|--9--5--7--|--9--|
a|--9--5--7--|--9--|
E|--7--3--5--|--7--|
Tap to rate this tab
# A B C D E F G H I J K L M N O P Q R S T U V W X Y Z