Song name
# A B C D E F G H I J K L M N O P Q R S T U V W X Y Z

Marius Muller-westernhagen - Hoffnung tab

-------------------------------------------------------------------------------
                             Hoffnung - Westernhagen
-------------------------------------------------------------------------------
Tabbed by: FliegenderHase
E-mail: flying-rabbit@gmx.de

Tuning: standard
 Have fun!



Vers

              e        G           e                e         D
e|----------------------------------------------------------------2----------|
B|-------------0---------0---------0-----------------0---------3----3--------|
G|-----------0---0-----0---0-----0---0-------------0---0----2----------------|
D|---------2---------0---------2-----------------2--------0------------------|
A|---3-2----------------------------------3-2--------------------------------|
E|-3-----0---------3---------0----------3------0-----------------------------|
  Ich wußte nichts von ihr           sie sagte nur,      bleib 


          G                a                C              G          e   G
e|---------------------------------------------------------------------------|
B|-------0-----------------1---------------1---------------0----------0------|
G|-----0---0-------------2---2-----------0---0-----------0---0------0---0----|
D|---0-----------------2-------2-------2-------2-------0----------2----------|
A|---------------3-2-0-----------0-2-3-----------3-2-------------------------|
E|-3-----------3-------------------------------------3----------0---------3--|
   hier   und ich verlor das Spiel  noch ehe      es begann




Bridge: 


            e       G          e           G            a         h     
e|---------------------------------------------------------------------------|
B|-----------0---------0---------0------------0---------1---------3----------|
G|---------0---0-----0---0-----0---0--------0---0-----2---2-----4---4--------|
D|-------2---------0---------2------2-----0---------2---------4-------4------|
A|---------------2--------------------------------0---------2-----------2-2--|
E|-3-2-0-------------------0---------3-2-3-----------------------------------|
 Es ist schön,    so       schön      sich im Kreis zu    dreh'n



        C                 G          a           G  
e|---------------------------------------------------------------------------|
B|-------1-----------------0---------------1---------0-----------------------|
G|-----0---0-------------0---0-----------2---2-----0---0---------------------|
D|---2-------2---------0-------0-------2---------0---------------------------|
A|-3-----------3-3-2---------------2-0-------------------0-------------------|
E|-------------------3-----------3-------------3-----------------------------|
   mein Verlangen so viel stärker als die Angst





Refrain: 

 D            C          G-e-G
Hoffnung ist, was uns geblieben

D            C          G-e-G
Hoffnung ist, was uns zusammen noch hält

D            C          G-e-G
Hoffnung, daß wir uns noch einmal verlieben

a             C              G-e-G
Hoffnung - auf was wirklich zählt
Tap to rate this tab
# A B C D E F G H I J K L M N O P Q R S T U V W X Y Z