Song name
# A B C D E F G H I J K L M N O P Q R S T U V W X Y Z

Marius Muller - Soul Of A Man tab

----------------------------------------------------------------------------
                    Soul of a Man INTRO - Marius Muller
----------------------------------------------------------------------------
Tabbed by: iKjetil
Email:

Tuning: e B G D A E

e|-------------------------------------------------------------------------|
B|-------------------------------------------------------------------------|
G|-2-----2-----------------------------------------------------------------|
D|-2---4-2-4-------2-------------------------------------------------------|
A|---------4---2h4---4p2-0-------------------------------------------------|
E|---2-------2-------------2-----------------------------------------------|

e|-------------------------------------------------------------------------|
B|-------------------------------------------------------------------------|
G|---2---4/5\4------------9-9----------------------------------------------|
D|---2---4/5\4-2-4----5/7-9-9h11p9-----------------------------------------|
A|---------------4-----------------12-9------------------------------------|
E|-2---2-------------------------------------------------------------------|

e|-------------------------------------------------------------------------|
B|-------------------------------------------------------------------------|
G|-2-----2---------2--------------2-----4\2--------------------------------|
D|-2---4-2-4-----4-2--------------2-----4\2-4---4--------------------------|
A|-----4---4---4-----4p2-0----2h4---2/4------------------------------------|
E|---2-------2--------------------------------2----------------------------|



************************************

| /   slide up
| \   slide down
| h   hammer-on
| p   pull-off
| ~   vibrato
| +   harmonic
| x   Mute note
| b   Bend
| pb  Pre-bend
| br  Bend release
| pbr Pre-bend release
| brb Bend release bend

************************************
Tap to rate this tab
# A B C D E F G H I J K L M N O P Q R S T U V W X Y Z