Song name
# A B C D E F G H I J K L M N O P Q R S T U V W X Y Z

Marius Muller - Den Du Veit chords

Highlighted       Show chord diagrams
Capo on 3rd.

Intro: C
                     F   G  C
Jeg hører telefonen ringe
                         F     G      C
Snubler i teppet når jeg løper for å ta’n
                      F   G  Am 
Og når jeg løfter av røret 
         C               F
Og hører stemmen din så veit jeg hva det er

G         F         C 
Typen din er vel på ferie
G          F        Bb  F C
Kanskje du har fått fri i kveld
G        F        C 
Mulig at dere har slått opp
      Dm                G
Så du sitter der for dæ sjæl

Refreng:
    Am     G      F         G     Am         
For jeg er den du veit sier aldri nei
    Am     G       F   G      C
Jeg kommer alltid løpende til deg
   Am      G    F      G    Am  
Du trenger bare knipse å si hei
    Am     G      F    G      C
Jeg kommer alltid løpende til deg

Mellomspill: C
                        F      G  C
Du spør om jeg har no å gjørra.
                         F      G      C
Og åssen står're til med kjærligheta mi  
                       F    G  Am
Du sitter hjemme helt aleine 
            C              F    
Og hvis du gidder kan jeg komme klokka ni
 
G         F         C 
Typen din er vel på ferie
G          F        Bb  F C
Kanskje du har fått fri i kveld
G        F        C 
Mulig at dere har slått opp
      Dm                G
Så du sitter der for dæ sjæl

Refreng:

Mellomspill: F - G (repeteres til refreng)

e|---10-10---10--13--15-11------------------|
B|-11------11--11----------9--8-8--6-6--4-4-|
G|------------------------------------------|                                    
D|------------------------------------------|
A|------------------------------------------|
E|------------------------------------------|

e|------------------------11--13-13-13-13--|
B|-4h6-6h8-8h9-9-11-11--11--11-------------|
G|--------------------12-------------------|
D|-----------------------------------------|
A|-----------------------------------------|
E|-----------------------------------------|
Tap to rate this tab
# A B C D E F G H I J K L M N O P Q R S T U V W X Y Z