Guitaretab - guitar tabs
Song name
# A B C D E F G H I J K L M N O P Q R S T U V W X Y Z

Marius Muller - Den Du Veit tab

Marius Muller  

Den du veit
 
Intro: C#m B  A  A  B  C#m x2

       C#m B  A   A  B  E

   E                    A  B  E
Jeg hører telefonen ringe
                        A       B     E
Snubler i teppet når jeg løper for å ta’n
                        A  B  E
Og når jeg løfter av røret 
                        C#m      B       A
Og hører stemmen din så veit jeg hva det er

  B        A        E  
Typen din er vel på ferie
   B       A         D  C#m B
Kanskje du har fått fri i kveld
   B        A        E 
Mulig at dere har slått opp
  F#m                   B
Så du sitter der for dæ sjæl


Ref:
C#m  B   A               A       C#m         
For jeg er den du veit sier aldri nei
C#m  B   A         A       B    E
Jeg kommer alltid løpende til deg
C#m  B   A               A       C#m  
Du trenger bare knipse å si hei
C#m  B   A                B    E
Jeg kommer alltid løpende til deg

      

     E                    A  B  E
Du spør om jeg har no å gjørra.
      E                    A  B  E
Og åssen stårre til med kjærligheta mi
      E                    A  B  E
Du sitter hjemme helt aleine
  E                         C#m  B     A
Og viss jeg vil så kan jeg komma klokka ni

  B        A        E  
Typen din er vel på ferie
   B       A         D  C#m B
Kanskje du har fått fri i kveld
   B        A        E 
Mulig at dere har slått opp
  F#m                   B
Så du sitter der for dæ sjæl

Ref


Solo 
[ Tab from: http://www.guitaretab.com/m/marius-muller/82704.html ]
|-----------------------------------------------------------------------|
|----------------------------------------------12-----------------------|
|----9~~~~~~----11b(13)r11---9---11b(13)~~~~------(13)r11--9~~----------|
|--------------------------------------------------------------11-9-11~-|
|-----------------------------------------------------------------------|
|-----------------------------------------------------------------------|

Ref x antall ganger.

Små solobiter under siste ref:

|-----------------------|
|-----------------------|
|----11b(13)r11--9-9~~~-|
|-----------------------|
|-----------------------|
|-----------------------|


|------------------12~--|
|-----------------------|
|----11b(13)r11--9------|
|-----------------------|
|-----------------------|
|-----------------------|


|--------------------------------------------|
|----12b(14)r12-9----------12----------------|
|------------------11b(13)----(13)r11--9~----|
|--------------------------------------------|
|--------------------------------------------|
|--------------------------------------------|


|------12----14b(16)~--(16)r14--12~~---------|
|---12----12---------------------------------|
|--------------------------------------------|
|--------------------------------------------|
|--------------------------------------------|
|--------------------------------------------|

Enjoy!
Tabbed by Morten Gammelby.
Feel free to correct me at : mr_mo015@hotmail.cm
Related for Den Du Veit tab
Den Du Veit chords by Marius Muller