Marjinal - Aparat Bangsat tab

Intro 1
e|----3~--------3~---------3--3------5--3~~----------------------------3---------5~~~--|
B|---------5~---------5~----------5-------------3-3-3---5--6--5--6-----5---------------|
D|-------------------------------------------------------------------------------------|
G|-------------------------------------------------------------------------------------|
A|-------------------------------------------------------------------------------------|
E|-------------------------------------------------------------------------------------|


Intro 1
e|----3~--------3~---------3--3------5--3--------------------------------------------|
B|---------5~---------5~----------5---------5----3-3-3---5--6--5--6--5--1--3--1---3--|
D|-----------------------------------------------------------------------------------|
G|-----------------------------------------------------------------------------------|
A|-----------------------------------------------------------------------------------|
E|-----------------------------------------------------------------------------------|
Tap to rate this tab
 
# A B C D E F G H I J K L M N O P Q R S T U V W X Y Z