Song name
# A B C D E F G H I J K L M N O P Q R S T U V W X Y Z

Mark Harris - This Girl Up The Street tab

Help us improve GuitareTab! Take a short survey!
-------------------------------------------------------------------------------
                             This Girl Up Thw Street - Hemp Night Knights
-------------------------------------------------------------------------------
Tabbed by: Mark Harris
Email:retrofoole78yahoo.com

Tuning: Standard

e|-----------------------------------------------------------------------------|
B|------------5---------------------5---------------------3--------------------|
G|---------5-----5---------------5-----5---------------3-----3-----[x2]--------|
D|------5-----------5---------5-----------5---------3-----------3--------------|
A|---3----------------3-----3---------------3-----1----------------1-----------|
E|-----------------------------------------------------------------------------|

e|-----------------------------------------------------------------------------|
B|-----------------------------------------------------------------------------|
G|-------3---------------------------------------------------------------------|
D|-----3---3-------------5[LET THIS RING]--------------------------------------|
A|---3-------3--[x2]-----5-----------------------------------------------------|
E|-1-----------1---------3---------------------------5-3-5-3-5-3---------------|

e|-----------------------------------------------------------------------------|
B|---5----------3--------------------------------------------------------------|
G|---5-[x8]-----3-[x8]----------------------5-----------------3----------------|
D|---5----------3-------3-------5-----------5-[x2]---5--------3-[x2]--3--------|
A|---3----------1-------3-[x8]--5-----------3--------5-[x4]---1-------3[x4]----|
E|----------------------1-------3--------------------3----------------1--------|


e|-----------------------------------------------------------------------------|
B|-----------------------------------------------------------------------------|
G|----5-----------------3-------------------5-----------------3----------------|
D|----5-[x2]---5--------3-[x2]--3-----------5-[x2]---5--------3-[x2]--3--------|
A|----3--------5-[x4]---1-------3[x4]-------3--------5-[x4]---1-------3[x4]----|
E|-------------3----------------1--------------------3----------------1--------|


e|-----------------------------------------------------------------------------|
B|-----------------------------------------------------------------------------|
G|-----------------------------------------------------------------------------|
D|-5---------------------------------------------------------------------------|
A|-5-[let ring]----------------------------------------------------------------|
E|-3---------------------------------------------------------------------------|

ending chords:
G  G  G G G G   D D D D D D


| /  slide up
| \  slide down
| h  hammer-on
| p  pull-off
| ~  vibrato
| +  harmonic
|
===============================================================================
Related for This Girl Up The Street tab