Song name
# A B C D E F G H I J K L M N O P Q R S T U V W X Y Z

Mark Joggerst - Pursuit Of Perfection tab

Mark Joggerst
Pursuit of perfection
Commercial for the Lexus


Do note that the second part is octavated downwards.
This in order to abiliate playing it on spanish guitar.
If anyone is inquistive to acquiring the sheetmusic,
visit Mark Joggerst's website.
It's available to anyone in possession of PDF-readingsoftware.


Here goes


   Bm          F#m
----2-----2-----2-----2---------------------------------------|
-------3-----3-----2-----2------------------------------------|
----4-----4-----2-----2--------2x-----------------------------|
-------4-----4-----4-----4------------------------------------|
--------------------------------------------------------------|
--------------------------------------------------------------|


     G                                   A
----3-----3-----3-----3-----3-----3-----5-----5---------------|
-------3-----3-----5-----5-----3-----3-----5-----5------------|
----4-----4-----4--4--4--4--4-----4-----6-----6---------------|
-------5-----5-----5-----5-----5-----5-----7-----7------------|
--------------------------------------------------------------|
--------------------------------------------------------------|

    Bm          Bm7
----2-----2-----2-----2---------------------------------------|
-------3-----3-----3-----3------------------------------------|
----4-----4-----2-----2--------2x-----------------------------|
-------4-----4-----4-----4------------------------------------|
--------------------------------------------------------------|
--------------------------------------------------------------|

     Asus4       A
----5-----5-----5-----5-------------5---5---------------9-15--|
-------7-----7-----7-----7-------------------------7-10-------|
----7-----7-----6-----6--------2x---6---6------6-9------------|
-------7-----7-----7-----7-------------------7----------------|
--------------------------------------------------------------|
--------------------------------------------------------------|

   G                           D
---------------------------------------------------------------|
---0-------0-------0-------0-2-3-------3-------3-------3---2---|
-----0-------0-------0-----------2-------2-------2-------------|
-------0-------0-------0-----------4-------4-------4-----------|
---------2-------2-------2-----------5-------5-------5---5---5-|
---------------------------------------------------------------|

    G                          D
--------------------------------------------------------------|
---0-------0-------0-------0-2-3-------3-------3--------3---5-|
-----0-------0-------0-----------2-------2-------2------------|
-------0-------0-------0-----------4-------4-------4----------|
---------2-------2-------2-----------5-------5-------5----5---|
--------------------------------------------------------------|

    D                          A
---2-------2-------2-------2-3-5-------5-------5--------------|
-----3-------3-------3-----------7-------7-------7------------|
-------2-------2-------2-----------6-------6-------6----------|
---------4-------4-------4-----------7-------7-------7--------|
--------------------------------------------------------------|
--------------------------------------------------------------|


   Em7
---7--------7-------7-------7--------7------------------------|
-----8--------8-------8-------8-------------------------------|
-------7--------7-------7-------7-----------------------------|
---------9--------9-------9-------9---------------------------|
--------------------------------------------------------------|
--------------------------------------------------------------|


Any questions, suggestions and remarks are welcome @ albert_sintra@hotmail.com
Tap to rate this tab
# A B C D E F G H I J K L M N O P Q R S T U V W X Y Z