Song name
# A B C D E F G H I J K L M N O P Q R S T U V W X Y Z

Mark Joseph - Seen Your Soul chords

Highlighted       Show chord diagrams
Seen Your Soul

Music & Lyrics by: Mark Joseph
Chords by: Ray Costello "The Gribleys"
Time: 4/4
Notes: All Chords played as Bar Chords

Intro:
C#m (Slight Feedback for about 2 bars)

  C#m                 C#m                 B  B  C   C#m            C#m                  
e|9--------|---------|9--------|---------|7--7--8---9--|---------|-9-------|
B|9--------|---------|9--------|---------|7--7--8---9--|---------|----9----|
G|9--------|---------|9--------|---------|8--8--9---9--|---------|-------9-|
D|11-------|---------|11-------|---------|9--9--10--11-|---------|---------|
A|11-------|---------|11-------|---------|9--9--10--11-|---------|---------|
E|9--------|---------|9--------|---------|7--7--8---9--|---------|---------|

  E  E  F  F#            F#
e|0--0--1--2-|---------|-2-------|
B|0--0--1--2-|---------|----2----|
G|1--1--2--3-|---------|-------3-|
D|2--2--3--4-|---------|---------|
A|2--2--3--4-|---------|---------|
E|o--0--1--2-|---------|---------|



Chorus:
B              C    C#m
Now, I've seen your soul

I know I'm coming up strong
E          F   F#
And I like the way your faith

Don't say that I'm wrong 
B              C    C#m
And, I've seen your soul

I know I'm coming up strong
E          F   F#
And I like the way your faith

Don't say that I'm wrong 
B         C    C#m
I've seen your soul

   C#m      E  E  F  F#            F#       B  B  C   C#m           
e|-9-------|0--0--1--2-|---------|-2-------|7--7--8---9--|
B|---9-----|0--0--1--2-|---------|----2----|7--7--8---9--|
G|------9--|1--1--2--3-|---------|-------3-|8--8--9---9--|
D|---------|2--2--3--4-|---------|---------|9--9--10--11-|
A|---------|2--2--3--4-|---------|---------|9--9--10--11-|
E|---------|o--0--1--2-|---------|---------|7--7--8---9--|


Verse 1:
                                             E  E  F  F#
I know you saw me lying there on the floor
                                             B  B  C  C#m
You did nothing, are you feeling guilty more?
                                             E  E  F  F#
Well, is it hurting, pressing into your brain

What's the verdict, are you feeling the shame? 


Chorus:
B              C    C#m
Now, I've seen your soul

I know I'm coming up strong
E          F   F#
And I like the way your faith

Don't say that I'm wrong 
B              C    C#m
And, I've seen your soul

I know I'm coming up strong
E          F   F#
And I like the way your faith

Don't say that I'm wrong 
B             C    C#m
Now I've seen your soul


Guitar Solo:
C#m     F#     C#m     F#    C#m     B  B  C C#m 


Verse 2:
                                             E  E  F  F#
I know you fear me, now that I'm back again
                                             B  B  C  C#m
Man, I warned you I'd get you in the end
                                            E  E  F  F#
Can you see me playing you at your game ?

What's the verdict, do you feel the pain? 



End:
B              C    C#m
Now, I've seen your soul

I know I'm coming up strong
E          F   F#
And I like the way your faith

Don't say that I'm wrong 
B             C    C#m
Now I've seen your soul

I know I'm coming up strong 
E          F   F#
And I like the way your faith

Don't say that I'm wrong 
B             C    C#m
Now I've seen your soul 

I know, I know, I know
E             F    F#
Now I've seen your soul

I know, I know, I know
B             C    C#m
Now I've seen your soul 

I know, I know, I know
E             F    F#
Now I've seen your soul

B  B  C  C#m
Tap to rate this tab
 
# A B C D E F G H I J K L M N O P Q R S T U V W X Y Z