Song name
# A B C D E F G H I J K L M N O P Q R S T U V W X Y Z

Mark Knopfler - Walk Of Life tab

-------------------------------------------------------------------------------
			     WALK OF LIFE - Mark Knopfler
-------------------------------------------------------------------------------
Tabbed by:
Email:

Tuning:E-A-D-G-B-E
e|--0----|------|--0---|------|------|------|--0---|-----|------------------|
B|--0----|------|--2---|------|--4---|------|--2---|--4--|------------------|
G|--1----|------|--2---|------|--4---|------|--2---|--2--|------------------|
D|--2----|------|--2---|------|--4---|------|--2---|--4--|------------------|
A|--2----|------|--0---|------|--2---|------|--0---|--2--|------------------|
E|--0----|------|------|------|------|------|------|-----|------------------|

e|--0----|------|--0---|------|------|------|--0---|-----|------------------|
B|--0----|------|--2---|------|--4---|------|--2---|--4--|------------------|
G|--1----|------|--2---|------|--4---|------|--2---|--2--|------------------|
D|--2----|------|--2---|------|--4---|------|--2---|--4--|------------------|
A|--2----|------|--0---|------|--2---|------|--0---|--2--|--2\0-------------|
E|--0----|------|------|------|------|------|------|-----|------------------|

e|--------------------------|--------------------------|--------------------|
B|--------------------------|--------------------------|--------------------|
G|--------------------------|--------------------------|--------------------|
D|--------------------------|--------------------------|--------------------|
A|--------4--2--2--2--4--2--|--------4--4/2--2--2--0---|--------------------|
E|--0--0--------------------|--0--0--------------------|--------------------|

e|--------------------------|-------------------------|---------------------|
B|--------------------------|-------------------------|---------------------|
G|--------------------------|-------------------------|---------------------|
D|--------4--2--------4--2--|--2--2--2--4/2-----------|---------------------|
A|--0--0--------0--0--------|--0--0--0--0----0--4--4--|---------------------|
E|--------------------------|-------------------------|---------------------|

e|--------------------------|--------------------------|--------------------|
B|--------------------------|--------------------------|--------------------|
G|-----------------4--------|--4-----------------------|--------------------|
D|-----------------4--------|--4-----------------------|--------------------|
A|--2--2--2--2--2-----2--2--|-----2--2--2-----------0--|--------------------|
E|--------------------------|--------------4--4--5-----|--------------------|

e|--------------------------|--------------------------|--------------------|
B|--------------------------|--------------------------|--------------------|
G|--------------------------|--------------------------|--------------------|
D|--2--2--4--2--2--2--4--0--|--------------------------|--------------------|
A|--0--0--0--0--0--0--0--0--|--2--2--0--0-----0--------|--------------------|
E|--------------------------|--------------4-----2--0--|--------------------|

e|--------------------------|--------------------------|--------------------|
B|--------------------------|--------------------------|--------------------|
G|--------------------------|--------------------------|--------------------|
D|--------------------------|--------------------------|--------------------|
A|--------4--2--2--2--4--2--|--------4--4/2--2--2--0---|--------------------|
E|--0--0--------------------|--0--0--------------------|--------------------|

e|--------------------------|-------------------------|---------------------|
B|--------------------------|-------------------------|---------------------|
G|--------------------------|-------------------------|---------------------|
D|--------4--2--------4--2--|--2--2--2--4/2-----------|---------------------|
A|--0--0--------0--0--------|--0--0--0--0----0--4--4--|---------------------|
E|--------------------------|-------------------------|---------------------|

e|--------------------------|--------------------------|--------------------|
B|--------------------------|--------------------------|--------------------|
G|-----------------4--------|--4-----------------------|--------------------|
D|-----------------4--------|--4-----------------------|--------------------|
A|--2--2--2--2--2-----2--2--|-----2--2--2-----------0--|--------------------|
E|--------------------------|--------------4--4--5-----|--------------------|

e|--------------------------|--------------------------|--------------------|
B|--------------------------|--------------------------|--------------------|
G|--------------------------|--------------------------|--------------------|
D|--2--2--4--2--2--2--4--0--|--------------------------|--------------------|
A|--0--0--0--0--0--0--0--0--|--2--2--0--0-----0--------|--------------------|
E|--------------------------|--------------4-----2--0--|--------------------|


e|--------------------------|------------------------------------------------|
B|--------------------------|------------------------------------------------|
G|--------------------------|------------------------------------------------|
D|--------------------------|------------------------------------------------|
A|--2--2--0--0-----0--------|------------------------------------------------|
E|--------------4-----2--0--|------------------------------------------------|

e|--------------------------------------------------------------------------|
B|--------------------------------------------------------------------------|
G|--------------------------------------------------------------------------|
D|--------------------------------------------------------------------------|
A|--------------------------------------------------------------------------|
E|--------------------------------------------------------------------------|


| /  slide up
| \  slide down
| h  hammer-on
| p  pull-off
| ~  vibrato
| +  harmonic
| x  Mute note
===============================================================================
Tap to rate this tab
 
# A B C D E F G H I J K L M N O P Q R S T U V W X Y Z