Song name
# A B C D E F G H I J K L M N O P Q R S T U V W X Y Z

Mark Knopfler - The Fizzy And The Still tab

----------------------------------------------------------------------------
		The Fizzy and The Still - Mark Knopfler
---------------------------------------------------------------------------
Tabbed by:Zachary Jensen
Email:utahblazeman82@hotmail.com

Tuning:standard

Listen to the song to get the timing right, I think its 98% right.
Chords have capo on 3rd fret, guitar part has no capo.
I really wanted to play this song so i'm glad i could tab it, hope you like it.

e|---------------------------------------------------------------------|
B|----------------------3-------3---6----8-----------------------------|
G|------------2----3h5------5------------7/9----5------4h5h7----5h7p5--|
D|--5----4h5-----------------------------------------------------------|
A|---------------------------------------------------------------------|
E|---------------------------------------------------------------------|

e|-------------------------------|
B|-------3-----3--6---8----------|
G|--3h5-----5---------7/9----12--|
D|-------------------------------|
A|-------------------------------|
E|-------------------------------|
 E              Esus4      Em
Sunday morning here we are.
                A
The boy's come home
               E
not quite the movie star.
E             Esus4     Em
He's been in Hollywood.
                A
The boy's come home.

e|-------------------|
B|-------------------|
G|-------------------|
D|-------------------|
A|--7--8--7---5---7--|
E|-------------------|
              E
The boy's done good.

e|-------------------|
B|-------------------|
G|--7----------------|
D|--7h9--7--5---7----|
A|-------------------|
E|-------------------|

B            D                  A
He says she asked too high a price
              play softly
e|-------------------|
B|-------------------|
G|----7--5-----5-----|
D|--5-------5--------|
A|-------------------|
E|-------------------|
                   E
neglecting to declare

e|-------------------|
B|-------------------|
G|--7----------------|
D|--7h9--7--5---7----|
A|-------------------|
E|-------------------|
 B           D                   A   Am
what sits between them there on ice,
  Am                                   Am/F#
chilled, with the fizzy and the still:
                     E
he tried but didn't make it there.

e|-------------------|
B|-------8--7--------|
G|----7--------------|
D|--9----------------|
A|-------------------|
E|-------------------|
               A
'It's not for me

e|-------------------|
B|-------------------|
G|--7h9p7------------|
D|-------------------|
A|-------------------|
E|-------------------|
E                 A
   it's not for me'

e|------------------------------------------------------------------|
B|-------------------3---------3-------------3----------------------|
G|---------2----3h5-----5---3-----5----------------------2---4---5--|
D|--5--4h5---------------------------5-----5----5-----5-------------|
A|------------------------------------------------------------------|
E|------------------------------------------------------------------|

e|------------------------------------------------------------------------|
B|--6---------------------------------------------------------------------|
G|--5h7--5---3---5---7---5-----------5--------------------7---------------|
D|--------------------------5--------5h7---5---3---5------7h9---7---5--7--|
A|------------------------------------------------------------------------|
E|------------------------------------------------------------------------|

B           D                  A
he says she asked too high a price

e|-------------------|
B|-------------------|
G|----7--5-----9-----|
D|--5-------5--------|
A|-------------------|
E|-------------------|
                E
neglecting to declare

e|-------------------|
B|--8----------------|
G|--7h9--7--9--11----|
D|-------------------|
A|-------------------|
E|-------------------|
B              D                  A
what sits between them there on ice,
Am                                  play tab underneath or chord: Am/F#
chilled, with the fizzy and the still:

e|--------------------|
B|---8--8--6----6--8--|
G|-----------8--------|
D|--------------------|
A|--------------------|
E|--------------------|
                     E
he tried but didn't make it there
              A
'it's not for me

e|-------------------|
B|------3------------|
G|-------------------|
D|---5---------------|
A|-------------------|
E|-------------------|
            A
...not for me'

D|-5---|

E               Esus4
sunday papers, here we are

e|-------------------|
B|-------------------|
G|----4--5-7---------|
D|-5-----------------|
A|-------------------|
E|-------------------|
                 A
the boy's come home

e|---------------------|
B|---------------------|
G|---------------------|
D|--8--7h8--5----5---5-|
A|-----------------5---|
E|---------------------|

e|----------------|
B|----------------|
G|-----2---4--2---|
D|---2------------|
A|----------------|
E|----------------|
                A
the boy's come home

e|----------------|
B|----------------|
G|--3h5--2h3p0----|
D|----------------|
A|----------------|
E|----------------|

e|--------------------------------------------------------------------|
B|-----3-----------------------------3----------------3---------------|
G|-----------2h4p2----3h5--7--5---3------------------------5----7-----|
D|--5-----5------------------------------5---------5----5----------8--|
A|--------------------------------------------------------------------|
E|--------------------------------------------------------------------|

e|------------------------------------------------------------------|
B|---------------------8-----10--12---10-----11-----8-----5---------|
G|--5--5/7--5----------7-----9---12------12--10-----7h9-----5-------|
D|-------------5----------------------------------------------------|
A|------------------------------------------------------------------|
E|------------------------------------------------------------------|

e|-------|
B|-------|
G|-------|
D|---5---|
A|-------|
E|-------|
Tap to rate this tab
 
# A B C D E F G H I J K L M N O P Q R S T U V W X Y Z