Song name
# A B C D E F G H I J K L M N O P Q R S T U V W X Y Z

Mark Knopfler - If This Is Goobye chords

Capo 2
intro
-------------|------------------|-------------------|-------------|
-1-------1---|----------0---0^1-|-------------------|-----------1-|
-0---0-----0-|-----0------------|-------------2^3^2-|---------0---|
---2---2-----|---0---0----------|-----3-------------|---0^1^2-----|
-------------|------------------|---3---3-----------|-3-----------|
-------------|-3----------------|-1-----------------|-------------|
 
verses 1&2
-------------|-------------|-------------|-------------||
---------1---|---------0---|---------1---|-------------||
-----0-----0-|-----0-----0-|-----0-----0-|---------2---||x3
---2---2-----|---0---0-----|---2---2-----|-----3-----3-||
-------------|-------------|-3-----------|---3---3-----||
-3-----------|-3-----------|-------------|-1-----------||
 
-------------|-------------|-------------|------------|
---------1---|---------0---|-------------|----------1-|
-----0-----0-|-----0-----0-|---------2---|-----0------|
---2---2-----|---0---0-----|-----3-----3-|---2---2----|
-------------|-------------|---3---3-----|------------|
-3-----------|-3-----------|-1-----------|-3----------|
 
 
verse1
My famous last words are laying around in tatters 
Sounding absurd whatever i try 
But I Love you, and that's all that really matters 
If this is goodbye if this is goodbye 


Verse2
Your bright shining sun, would light up the way before me 
You were the one, made me feel I could fly 
And I love you, whatever is waiting for me 
If this is goodbye if this is goodbye 


G                C             G                    C
Who knows howlong we’ve got, or what we're made out of 
G                     C
Who knows if there's a plan or not 
C                            G              
There is our love, I know there is our love 

verse 3
-------------|-------------|-------------|-------------||
---------1---|---------0---|---------1---|-------------||
-----0-----0-|-----0-----0-|-----3-----3-|---------2---||
---2---2-----|---0---0-----|---2---2-----|-----3-----3-||x3
-------------|-------------|-3-----------|---3---3-----||
-3-----------|-3-----------|-------------|-1-----------||
 
-------------|-------------|-------------|-0-|
---------1---|---------0---|-------------|-1-|
-----0-----0-|-----0-----0-|---------2---|-0-|
---2---2-----|---0---0-----|-----3-----3-|-2-|
-------------|-------------|---3---3-----|-3-|
-3-----------|-3-----------|-1-----------|---|
 
verse3
Those famous last words could never tell the story 
Spinning unheard in the dark of the sky 
But I love you, and this is our glory 
If this is goodbye, if this goodbye 
If this is goodbye, if this goodbye
 
Solo 
Chords like verse 3
Tap to rate this tab
 
# A B C D E F G H I J K L M N O P Q R S T U V W X Y Z