Song name
# A B C D E F G H I J K L M N O P Q R S T U V W X Y Z

Mark Knopfler - Wild Theme tab

Artist: Mark Knopfler
Song: "Wild Theme"
CD: "Local Hero" Soundtrack

###This is one of Mark's more brilliant pieces. I'm not guaranteeing 100% accuracy, but
should be very close. Have some fun with it.###

----------------------5h7-5h7p5-------------------------------------------|
----5-5--5/8--8---5-8----------8-5----------8-------------------5---------|
------------------------------------9p7h9-9--7-7--5-7/9--7---5-7--5-4-----|
-/5---------------------------------------------------------5---------7---|
--------------------------------------------------------------------------|
--------------------------------------------------------------------------|

-------------------------8-7-5h7-5h7p5------------------------------------|
----------------------5-8-------------8-5---8h10--8h10--10--10p8----------|
---------4-5/7-----5-7----------------------9-----9-----9---9-------------|
-5p3h5--------5---5-------------------------------------------------------|
--------------------------------------------------------------------------|
--------------------------------------------------------------------------|
--------------------------------------------------------------------------|

------------------------------------8--8h10p8\7---------------------------|
------5-------5------------------5-8------------8-5-8/10--8p6h8--6h8p6h8--|
--5-7--5-----5-7/9-7--5h7p5---5h7-----------------------------------------|
-5------5-5h7-------------------------------------------------------------|
--------------------------------------------------------------------------|
--------------------------------------------------------------------------|

--------------------------------------------------------------------------|
-6-5---------5------------------5h8p5--8-8-8-6--5h6h8----5-6--8p6p5-------|
-----5------5--7/9-7--5h7p5--5h7---------------------5--7-----------5-5h7-|
------5-5h7---------------------------------------------------------------|
--------------------------------------------------------------------------|
--------------------------------------------------------------------------|

--------------------------------------------------------------------------|
---------------5-5--5/8-8--5-8-8-6----5------------------5----------------|
-----------------------------------5h7----------------5h7--5-7-7/9-7-5-7--|
-5h7--5-5---/5--------------------------5--------5------------------------|
-------------------------------------------8-7-8--------------------------|
---------------------------------------------------8----------------------|

---------------------------------------10/12-10-8\7-----------------------|
---6-5--5h6-----5-6--------------8-8---------------10--8h10-8---10---10-8-|
------------5------7-5-7-5h7-7/9-------------------------------9----9-----|
-7-----------7------------------------------------------------------------|
--------------------------------------------------------------------------|
--------------------------------------------------------------------------|

------------------------------------8--7--5---------5-----7--8-7--5-8-7---|
--8-6-5-6p5-----6-5--------------5-8--------8--6--8-----------------------|
-7---------7-5-----7--5h7-5---5h7----------------------5/7----------------|
--------------7-----------------------------------------------------------|
--------------------------------------------------------------------------|
--------------------------------------------------------------------------|

-5h7p5--3h5p3----10-12--10h12p10\8----------------------------------------|
----------------X-----------------8--8-10---------------------------------|
---------------X--------------------9-------------------------------------|
--------------------------------------------------------------------------|
--------------------------------------------------------------------------|
--------------------------------------------------------------------------|

-------------------------------------------------------------------------|
---5--5-3-5-----5-6--5h6h8-----------------------------------------------|
-------------5-7----------5--4h5h7----------4-5-7/9-7--9-7--4-5--4-5-7---|
-5--------------------------------5-----5-------------------5-5--5-5-7---|
-------------------------------------8-7---------------------------------|
-------------------------------------------------------------------------|

------------------------------------8-7-5--7p5----------------------------|
-5-6-8-10---8p6--5h6-8--5h8-8----5-8----------8-5------8-8----------------|
-5-7-9------------------------5-7-------------------7/9---7--5-7/9-5/7-7--|
--------------------------------------------------------------------------|
--------------------------------------------------------------------------|
--------------------------------------------------------------------------|

-----------------------------------------------------0-------------------|
--6-5-------5-------------5----------5-------------1---------------------|
-----5-----5-7--5-5----5-7-5--------5-7--5-------0-----------------------|
-7----5-5h7-----------5------5-5h7-------------2-------------------------|
---------------------------------------------3---------------------------|
-------------------------------------------------------------------------|

Sorry for the delay in tabbing the rest. Have some fun with it. I hope it's of some use.

-KEW
Tap to rate this tab
# A B C D E F G H I J K L M N O P Q R S T U V W X Y Z