Song name
# A B C D E F G H I J K L M N O P Q R S T U V W X Y Z

Mark Knopfler - Piper To The End tab

Piper to the End @ Mark Knopfler

|------0---------------8-7-5--3-0-3-5---0-3-3--0-3--0----------0----1-0----|
|--1-3----3-1--0---1----------------------------------3-1--1-3----1-----3--|
|----------------2---------------------------------------------------------|
|--------------------------------------------------------------------------|
|--------------------------------------------------------------------------|
|--------------------------------------------------------------------------|

|----0-3-3----0-3--8-7-5--3-0-3-5--0-3-3--0-3--0--------0------------------|
|--3--------3------------------------------------3-1--1---3-1----1--1------|
|--------------------------------------------------------------2-----------|
|--------------------------------------------------------------------------|
|--------------------------------------------------------------------------|
|--------------------------------------------------------------------------|
Tap to rate this tab
# A B C D E F G H I J K L M N O P Q R S T U V W X Y Z