Song name
# A B C D E F G H I J K L M N O P Q R S T U V W X Y Z

Mark Knopfler - Storybook Love tab

Done by Kai Lawrence - 4.21.2010

e/--2---2--2----2--------3---3--5----2-----------------------/
b/--3-----------3--------------------3-----------------------/
g/--2-----------2----2---------------2-----------------------/
d/--0-----------0--------------------0-----------------------/
a/-----------------------------------------------------------/
e/-----------------------------------------------------------/

e/--------2----2---2-----------------------0h2----2----------/
b/-----------------3----------3----2--------------3----------/
g/-----2-----------2----2-------------------------2----------/
d/--0--------------0------------------------------0----------/
a/-----------------------------------------------------------/
e/-----------------------------------------------------------/

e/--------2---2---2----------3----4---2----------------/
b/----------------3-----3----5--------3----------------/
g/----2-----------2-------------------2----------------/
d/--0-------------0-------------------0----------------/
a/-----------------------------------------------------/
e/-----------------------------------------------------/

e/--------2--2--2-----------0----------2-------------------/
b/--------------3------3----2----2-----3-------------------/
g/-----2--------2-----------2----------2-------------------/
d/--0-----------0-----------0----------0-------------------/
a/---------------------------------------------------------/
e/---------------------------------------------------------/

e/-----------7--7--7--7---------8--8--8----7-------------------/
b/--------------------8----8----8----------8-----8-------------/
g/-----2--------------7---------9----------7-------------------/
d/--0----------------------------------------------------------/
a/-------------------------------------------------------------/
e/-------------------------------------------------------------/

e/-------------7---7---7---7----7---7--------5-----5---7---7--------------/
b/-------------------------8------------8----7-------------8--------------/
g/--------7----------------7-----------------7-------------7--------------/
d/---0--------------------------------------------------------------------/
a/------------------------------------------------------------------------/
e/------------------------------------------------------------------------/

e/-----------7--7--7--7--------8--8--8----7--------------------/
b/--------------------8----8---8----------8-----8--------------/
g/-----2--------------7--------9----------7--------------------/
d/--0----------------------------------------------------------/
a/-------------------------------------------------------------/
e/-------------------------------------------------------------/

e/-------2--2--2--------3---3--5---2-----------------------/
b/-------------3-------------------3-----------------------/
g/----2--------2----2--------------2-----------------------/
d/--0----------0-------------------0-----------------------/
a/---------------------------------------------------------/
e/---------------------------------------------------------/

and now repeat from the second measure.
Tap to rate this tab
# A B C D E F G H I J K L M N O P Q R S T U V W X Y Z