Song name
# A B C D E F G H I J K L M N O P Q R S T U V W X Y Z

Mark Knopfler - Privateering tab

-------------------------------------------------------------------------------
                             Privateering - Mark Knopfler
-------------------------------------------------------------------------------
Tabbed by: peaceman
Email: fahrraddach@yahoo.de

Tuning: Standard with capo on 3rd fret.

Key: Am

e|---------------------------------------------------------------------------|
B|---------------------------------------------------------------------------|
G|---------------------------------------------------------------------------|
D|--------0-0h2---0h2p0-----0h2--------------0--0-0-0------------------------|
A|--0-h3-----------------3----------0-0--3--/5--5-5-5--3-0-------------------|
E|---------------------------------------------------------------------------|

e|---------------------------------------------------------------------------|
B|---------------------------------------------------------------------------|
G|---------------------------------------------------------------------------|
D|--------0-0h2--5--2-2-2p0-----0--------------------------------------------|
A|--0-h3---------------------3----3--0--0-0--0------0------------------------|
E|----------------------------------------------3b---------------------------|


************************************

| /   slide up
| \   slide down
| h   hammer-on
| p   pull-off
| ~   vibrato
| +   harmonic
| x   Mute note
| b   Bend
| pb  Pre-bend
| br  Bend release
| pbr Pre-bend release
| brb Bend release bend

************************************
Tap to rate this tab
# A B C D E F G H I J K L M N O P Q R S T U V W X Y Z