Song name
# A B C D E F G H I J K L M N O P Q R S T U V W X Y Z

Mark Knopfler - Haul Away tab

Song :Haul away
from "Privateering" album(2012), Mark Knopfler

Here is the detail of the solo part (that I tabbed for guitar) wich is originally played
with a flute ( ??? I guess...), as you can listen here :
http://www.youtube.com/watch?v=PvumgQ-FCbM



Solo flūte intro :
e--------------------------------------------------------------------------------------------|
B--3-5/7-8-10------10-8----------------8-----------------------------------------------------|
G-----------------------9-7-5----5>7-9---7----7-7>9-7>5---5------(5)------------(5)-(7)-(5)--|
D-------------------------------------------------------7-----------(7)>(5)-(7)--------------|
A--------------------------------------------------------------------------------------------|
E--------------------------------------------------------------------------------------------|

2 verses
(plan for 1 verse =
(C)  F
C
G/C²/F
F
G/Am
Em/G
C/Am
(F/) C
F C
So repeat that 2 times)


Solo flūte middle:
e---------------------------------------------------------------------|
B------------------13-12-10-8-5-------8-------------------------------|
G----5-7/9-12-14----------------5>7/9---9-7-5---5---------------------|
D---------------------------------------------7-----------------------|
A---------------------------------------------------------------------|
E---------------------------------------------------------------------|


e----------------------------------------------------------------------------------------------|
B------------------------------------------8---------------------------------------------------|
G----5-7/9-12-14--(12)>14-12-9-7-5---5>7-9---7----7-7>9-7>5---5----(5)-------------(5)-(7)-(5)-|
D-----------------------------------------------------------7----------(7)>(5)-(7)-------------|
A----------------------------------------------------------------------------------------------|
E----------------------------------------------------------------------------------------------|
Then last verse


and then final solo :

Repeat the middle-song solo, then add this :
e------------------------------------------------------------|
B-----13-12-10-----10-12-10----------------------------------|
D---------------------------12-9------------8----------------|
G-------------------------------------5-7-9---9-7-5---5------|
D---------------------------------------------------7--------|
A------------------------------------------------------------|
E------------------------------------------------------------|


e-----------------------------------------------------------------------------------------|
B---------8-10---10-8----------------8----------------------------------------------------|
D---5-7/9-------------9-7-5----5>7-9---7---7-9-7>5---5------(5)--------------(5)-(7)-(5)--|
G--------------------------------------------------7-----------(7)-(5)---(7)--------------|
D-----------------------------------------------------------------------------------------|
A-----------------------------------------------------------------------------------------|
E-----------------------------------------------------------------------------------------|


Lyrics :


It was a windless night
when you left the ship
You never were
a steady bold one
I gave (you) my hand
Ah but you did slip
I'm a living man
and you're a cold one
so haul away
haul away from here

My love's as fair
as a girl can be
My wedding ring
is a heavy gold one
Now you lay alone
in the deep dark sea
I'm a living man
and you're a cold one
so haul away
haul away for home

The morning brings
Lord a fresh young breeze
to fill our sails
to end the doldrums
Our lucky ship
speeds across the sea
I'm a living man
and you're a cold one
so haul away
haul away for home





I made this myself so it may not be 100% exact, but I believe it's close, and it sounds nice.


> means here : pull over and/or hammer on
/ means slide
But you don't have to play it the exact way I wrote it...

Anyway, it's a beautiful song, as always with Mr Knopfler...!
Hope you'll enjoy this one as much as me !

If you've got any question and/or remark and/or correction, you can still message me
here on ultimate-guitar !
Tap to rate this tab
# A B C D E F G H I J K L M N O P Q R S T U V W X Y Z