Song name
# A B C D E F G H I J K L M N O P Q R S T U V W X Y Z

Mark Knopfler - Redbud Tree tab

Redbud Tree
Mark Knopfler - Privateering(2012)


I tabbed this from a youtube tut vid, thanks to 12988Jake for that
http://www.youtube.com/watch?v=ikQtKLB_JbQ
I don't believe there are any mistakes, I am working on the timing now for some proper 
staff notation

E-----------------------------------------|
B-----------------------------------------|
G-7h9/10---9-10-9-7----12b-12-10-12-12-10-|
D-----------------------------------------|
A-----------------------------------------|
E-----------------------------------------|

E------------------------------------------------------|
B---------------------------------10-11p10-------------|
G-9-10p9-12-9h10p9-10p9-7--12b---------12-10-12b-12-10-|
D------------------------------------------------------|
A------------------------------------------------------|
E------------------------------------------------------|

E----------------------------------------------------|
B--------10----------10---------10-11/13-11h13p11-10-|
G--10h12----12p10h12------10h12----------------------|
D----------------------------------------------------|
A----------------------------------------------------|
E----------------------------------------------------|

E-------------------------------------------|
B------10h11-10----11-10-------10--------10-|
G---12----------12---------------12p11h12---|
D-12--------------------12---12-------------|
A-------------------------------------------|
E-------------------------------------------|

E---------------------------------------------------------------|
B-------10-11/13-11h13p11-10-----------10/11~/13----10h11p10----|
G-10h12-----------------------------12-----------12-------------|
D-----------------------------11/12--------------------------12-|
A---------------------------------------------------------------|
E---------------------------------------------------------------|
Tap to rate this tab
# A B C D E F G H I J K L M N O P Q R S T U V W X Y Z