Song name
# A B C D E F G H I J K L M N O P Q R S T U V W X Y Z

Mark Knopfler - Hill Farmers Blues chords

Highlighted       Show chord diagrams
# This is not my work, I got it from a friend of mine. Just wanted to add it here

First Guitar plays: 
|--10----10----10----10----7----7----7------| 
|-----13----13----13----3----10---10---10---| 
|-------------------------------------------| 
|-------------------------------------------| 
|-------------------------------------------| 
|-------------------------------------------| 
 
While the other plays: 
|--------------------------------------------------| 
|-----------------------------5--------------------| 
|--5h7~---7-7---5-7h8p7s5-5s7----3^-3^-^-2p0-------| 
|---------7-7--------------------------------0h2p0-| 
|--------------------------------------------------| 
|--------------------------------------------------|
 
 
 
Em 
I'm going into tow law 
G          C 
For what I need 
G 
Chain for the ripsaw 
D              Em 
Killer for the weed 
Em 
The dog's at the back door 
G         C 
Leave him be 
G 
Don't feed him jack 
D                 Em 
And don't wait up for me 
 
Em 
Going into tow law 
G          C 
To fuel my fire 
G 
Shells for the twelve 
D         Em 
And razor wire 
Em 
The dog's at the back door 
G         C 
Leave him be 
G 
Don't do jack 
D                 Em 
And don't wait up for me 

C      D 
So bad so bad 
C      D 
So bad so bad 
 
Em 
I'm going into tow law 
G          C 
To have my fun 
G 
Don't get me wrong 
D            Em 
You were the only one 
Em 
Behind my back lord 
G                  C 
You made a fool of me 
G 
Don't do jack 
D                 Em 
And don't wait up for me 
 
C      D 
So bad so bad 
C      D 
So bad so bad 
Tap to rate this tab
# A B C D E F G H I J K L M N O P Q R S T U V W X Y Z