Song name
# A B C D E F G H I J K L M N O P Q R S T U V W X Y Z

Mark Knopfler - Our Shangri-la tab

-------------------------------------------------------------------------------
                     Our Shangri-La - Mark Knopfler
-------------------------------------------------------------------------------
Tabbed by: adrian_misak
E-mail: adrian.misak7@gmail.com

Tuning: Standard

E  F#m  A   E

E
Its the end of a perfect day
  F#m
For surfer boys and girls
A
The Sun's dropping down in the bay
    E             H
And falling off the world
          E
There's a diamond in the sky
    F#m
Our evening star
A             E    B
In our shangri-la

         E
Get that fire burning strong
F#m
Right here and right now
     A
It's here and then its gone
           E          H
There's no secret, anyhow
       E
We may never love again
       F#m
To the music of guitars
A             E
In our shangri-la

memory...           turns...
e|--------------------------------------------------------------------------|
B|----7-7-9-10v------10-9-7-------------------------------------------------|
G|--9-----------------------9-6---------------------------------------------|
D|--------------------------------------------------------------------------|
A|--------------------------------------------------------------------------|
E|--------------------------------------------------------------------------|

A
Tonight your beauty burns
G#m     F#    
Into my memory
F#m
The wheel of heaven turns
A
Above us endlessly

        E
This is all the heaven we've got
F#m
Right here where we are
   A          E   B
In our shangri-la

e|-------------------------------------------------------------------------|
B|-------------------------------------------------------------------------|
G|----------------------------4--------------------------------------------|
D|------4-4s6---4---4-6---4h6---6-7v-6-4-----------------------------------|
A|----7-----------7----------------------7-4v------4-7-4-7-7---------------|
E|--7--------------------------------------------7-------------------------|

e|-------------------------------------------------------------------------|
B|-------------------------------------------------------------------------|
G|------------------------------------------------------9-8-9--------------|
D|--------------------6v-7-6--------6-------6--6-6-9-6---------------------|
A|-7h9p7----------7-9--------7-9v-----9-7-9--------------------------------|
E|-------7v---7h9----------------------------------------------------------|

e|-------------------------------------------------------------------------|
B|--7-----------7------------------s9-9--2-2--0-0--------------------------|
G|----9-------6---6-------6---4s6--s9-9--2-2--1-1---1-2-1h2p1--------------|
D|--------9-9-------9-7-9-----6s7-----------------------------4-2----------|
A|----------------------------------------------------------------2--------|
E|-------------------------------------------------------------------------|

memory...           turns...
e|--------------------------------------------|
B|----12-11-9----10v-----10-9-7---------------|
G|------------11----------------9-6v----------|
D|-11-----------------------------------------|
A|--------------------------------------------|
E|--------------------------------------------|

A
Tonight your beauty burns
G#m     F#    
Into my memory
F#m
The wheel of heaven turns
A
Above us endlessly

        E
This is all the heaven we've got
F#m
Right here where we are
   A          E  
In our shangri-la        3x


e|---------------------------------------------------------------------|
B|---------------------------------------------------------------------|
G|------------------4--------------------------------------------------|
D|------2-2---2-4-6---6---4-6-7-6-2h4---2-------2----------------------|
A|--2-4-------------------------------4-----2-4---4-4-2-2v-------------|
E|---------------------------------------------------------------------|

e|---------------------------------------------------------------------|
B|---------------------------------------------------------------------|
G|------------------4---6---4------------------------------------------|
D|------2---2---4-6---6---6----4-6-7-6-2-4---2-2--------2--------------|
A|--2-4---4--------------------------------4--------0-4---4-4-2-2------|
E|---------------------------------------------------------------------|

e|---------------------------------------------------------------------|
B|--2s14--12-10--------------------------------------------------------|
G|--2s14--------9---4---------6-6-4-6----6-6-4-------------------------|
D|--------------------4-6----------------------6-6---------------------|
A|--------------------------4------------------------------------------|
E|---------------------------------------------------------------------|

e|---------------------------------------------------------------------|
B|--14---10--10--9--9--12--10-------10---------------------------------|
G|--14---9---9---9--9--13------9h11------------------------------------|
D|---------------------------------------------------------------------|
A|---------------------------------------------------------------------|
E|---------------------------------------------------------------------|
Tap to rate this tab
 
# A B C D E F G H I J K L M N O P Q R S T U V W X Y Z