Guitaretab - guitar tabs
Song name
# A B C D E F G H I J K L M N O P Q R S T U V W X Y Z

Mark Knopfler - Punish The Monkey tab

Punish the monkey
Mark Knopfler
Tabbed By Mad Mart

Intro. Dm   | Dm

e|------------------------|
B|------------10--8-------|
G|--10-9----7-------------|
D|-------10---------10-7--|
A|------------------------|
E|------------------------|

Vers. | Dm   | Dm   | Bb A | Dm Bb C | Dm  |

Intermezzo. | Dm  | Dm  |

e|------------------------------------------|
B|------------------------------------------|
G|-------1-2--------------------------------|
D|---3-5-----3hp5--------------3------------|
A|--5-------------5--------3-5---5-3--3-----|
E|-----------------------5-----------5------|


Vers. | Bb A Dm | Bb Dm | Bb A Dm | Bb A | Bb A Dm | Bb A |

Chorus. | Dm Bb Bb C | Dm Bb Bb C | Dm Bb Gm | Dm |

Bridge. | F Bb F | F Bb F | F Bb C | Dm A |


Solo. | Bb A Dm | Bb Dm | Bb Dm Bb A | Dm Bb A | Dm Gm | Dm Dm |
[ Tab from: http://www.guitaretab.com/m/mark-knopfler/97194.html ]
e|------------------------------------------|
B|------------------------------------------|
G|--------------------------5---------------|
D|----------------5-----------7-------------|
A|--------8-5--58--85--5-8------------------|
E|-56-865-------------8---------------------|

e|----------------5---------------|
B|------65------68--86---5-6-5----|
G|--57----5--7--------7--------5--|
D|-7--------7-------------------7-|
A|--------------------------------|
E|--------------------------------|




e|-5555------54----------8-5-----454------------|
B|-6666--686----86-----5-------------86-75--8---|
G|-----------------757----------------------7---| PAUSE
D|----------------------------------------------|
A|----------------------------------------------|
E|----------------------------------------------|

e|-----------------------------|
B|-6---------------------------|
G|---7-7-----------------------|
D|----------567-65-------------| PAUSE
A|-----------------8-55--------|
E|-----------------------------|


Intermezzo. | Dm | Dm |

Vers. | Bb A Dm | Bb Dm | Bb A Dm | Bb A | Bb A Dm | Bb A |

Chorus. | Dm Bb Bb C | Dm Bb Bb C | Dm Bb Gm | Dm | X 2

Outro. | Dm Dm | Dm Dm |

 
Related for Punish The Monkey tab