Song name
# A B C D E F G H I J K L M N O P Q R S T U V W X Y Z

Mark Kroos - Hope Floats tab

-----------------------------------------------------------------------------
			     Hope Floats - Mark Kroos
-----------------------------------------------------------------------------
Tabbed by: Mark Kroos
Posted by: fgarden555@hotmail.com

Tuning:DADF#AD (Open D), Capo 3rd Fret

************************************

| /   slide up
| \   slide down
| h   hammer-on
| p   pull-off
| ~   vibrato
| +   harmonic
| x   Mute note
| b   Bend
| pb  Pre-bend
| br  Bend release
| pbr Pre-bend release
| brb Bend release bend
| t   Right hand Tap

************************************

I tried to give some integrity to the rhythmic spacing but it proved difficult 
the double digit numbers.  Listen for the rhythms.


Intro/Main Riff:

D-|------0--------0--------0--------0-------0------------------0-------0---|
A-|------0--------0--------0--------0-------0------------------0-------0---|
F#|-10h12----12-------12p10----10-------8h10--p8---p0-0-h3-3h5--p3-3p0-----|
D-|---------------------------------------------t12---0--------------------|
A-|------------------------------------------------------------------------|
D-|-12-------12-------11-------11-------9------------------5-------5-------|

D-|------0--------0--------0---t7---0------0-------------------0-------0---|
A-|------0--------0--------0---------------0-------------------0-------0---|
F#|-10h12----12-------12p10-p0---------8h10---p8---p0-0-h3-3h5----(5)------|
D-|----------------------------t7---0-----------t12---0--------------------|
A-|------------------------------------------------------------------------|
D-|-12-------12-------11---------p0----9-------------------5-------5-------|

			       ^Right hand goes behind left
Repeat, then

D-|-----0-------0-------0-------0-------0-------0--------------------------|
A-|-----0-------0-------0-------0-------0-------0--------------------------|
F#|----------------/7------------------------------------------------------|
D-|------------------------------------------------------------------------|
A-|------------------------------------------------------------------------|
D-|-5-------5------/7-------7-------7-------7------------------------------|


                              

1st Verse:

D-|-----0------0------0------0------0------0-------0-------0---------------|
A-|-----0------0------0------0------0------0-------0-------0---------------|
F#|------------------------------------------------------------------------|
D-|------------------------------------------------------------------------|
A-|------------------------------------------------------------------------|
D-|-12-----12-----12-----12-----11-----11------11-----11-------------------|

D-|----0-----0-----0-----0-----0-----0-----0-----0-------------------------|
A-|----0-----0-----0-----0-----0-----0-----0-----0-------------------------|
F#|----------------------------3-----3-----3-----3-------------------------|
D-|------------------------------------------------------------------------|
A-|------------------------------------------------------------------------|
D-|-9-----9-----9-----9-----5-----5-----5-----5----------------------------|

D-|-----0------0------0------0------0------0-------0------0----------------|
A-|-----0------0------0------0------0------0-------0------0----------------|
F#|-----10-----10-----10-----10-----10-----10------10-----10---------------|
D-|------------------------------------------------------------------------|
A-|------------------------------------------------------------------------|
D-|-12-----12-----12-----12-----11-----11------11-----11-------------------|

D-|----0-----0-----0-----0-----0-----0-----0-----0-------------------------|
A-|----0-----0-----0-----0-----0-----0-----0-----0-------------------------|
F#|----8-----8-----8-----8-----3-----3-----3-----3-------------------------|
D-|------------------------------------------------------------------------|
A-|------------------------------------------------------------------------|
D-|-9-----9-----9-----9-----5-----5-----5-----5----------------------------|

Repeat intro

2nd Verse (same as the first!)

Interlude


D-|----0-----0-----0-----0-----0-----0-----0-----0-------------------------|
A-|----0-----0-----0-----0-----0-----0-----0-----0-------------------------|
F#|----8-----8-----8-----8-----7-----7-----7-----7-------------------------|
D-|------------------------------------------------------------------------|
A-|------------------------------------------------------------------------|
D-|-0-----0-----0-----0-----7-----7-----7-----7----------------------------|


D-|----0-----0-----0-----0-----0-----0-----0-----0-------------------------|
A-|----0-----0-----0-----0-----0-----0-----0-----0-------------------------|
F#|----8-----8-----8-----8-----3-----3-----3-----3-------------------------|
D-|------------------------------------------------------------------------|
A-|------------------------------------------------------------------------|
D-|-9-----9-----9-----9-----5-----5-----5-----5----------------------------|

Continue over "And as we stood..."


Intro with breaks

D-|------0---0-------------0---0------------0------------------0-------0---|
A-|------0---0-------------0---0------------0------------------0-------0---|
F#|-10h12----x--------12p10----x--------8h10--p8---p0-0-h3-3h5--p3-3p0-----|
D-|---------------------------------------------t12---0--------------------|
A-|------------------------------------------------------------------------|
D-|-12-------x--------11-------x--------9------------------5-------5-------|

D-|------0---0-------------0---t7---0------0-------------------0-------0---|
A-|------0---0-------------0---------------0-------------------0-------0---|
F#|-10h12----x--------12p10-p0---------8h10---p8---p0-0-h3-3h5----(5)------|
D-|----------------------------t7---0-----------t12---0--------------------|
A-|------------------------------------------------------------------------|
D-|-12-------x--------11---------p0----9-------------------5-------5-------|

3rd Verse

Bridge

D-|------0-----------------------------------------------------------------|
A-|------0----t12----0h9-----p0--------------------------------------------|
F#|-8h10---p8-----p0-----t12----0h8-----p0---------------------------------|
D-|-----------t12----0--------------t12----0-------------------------------|
A-|------------------------------------------------------------------------|
D-|-9----------------------------------------------------------------------|

D-|-----0--------0------0------0-------------------------------------------|
A-|-----0--------0------0------0-------------------------------------------|
F#|-3h5---p3-0---5------7--------------------------------------------------|
D-|------------------------------------------------------------------------|
A-|------------------------------------------------------------------------|
D-|-5--------5-------7------7----------------------------------------------|

D-|------0-----------------------------------------------------------------|
A-|------0----t12----0h9-----p0--------------------------------------------|
F#|-8h10---p8-----p0-----t12----0h8-----p0---------------------------------|
D-|-----------t12----0--------------t12----0-------------------------------|
A-|------------------------------------------------------------------------|
D-|-9----------------------------------------------------------------------|

D-|-----0------------------0---0-------------------------------------------|
A-|-----0----t9----0h5/7--(7)-(7)------------------------------------- ----|
F#|-3h5---p3----p0---------x---x-------------------------------------------|
D-|----------t9----0-------------------------------------------------------|
A-|------------------------------------------------------------------------|
D-|-5-----------------/7-----7---------------------------------------------|
(Repeat of the top 2 lines):
D-|------0-----------------------------------------------------------------|
A-|------0----t12----0h9-----p0--------------------------------------------|
F#|-8h10---p8-----p0-----t12----0h8-----p0---------------------------------|
D-|-----------t12----0--------------t12----0-------------------------------|
A-|------------------------------------------------------------------------|
D-|-9----------------------------------------------------------------------|

D-|-----0--------0------0------0-------------------------------------------|
A-|-----0--------0------0------0-------------------------------------------|
F#|-3h5---p3-0---5------7--------------------------------------------------|
D-|------------------------------------------------------------------------|
A-|------------------------------------------------------------------------|
D-|-5--------5-------7------7----------------------------------------------|

D-|----0-----0-----0-----0-----0-----0-----0-------------------------------|
A-|----0-----0-----0-----0-----0-----0-----0-------------------------------|
F#|-3-----3-----5-----5-----7-----7-----7-----7---Repeat this line 3 times-|
D-|------------------------------------------------------------------------|
A-|------------------------------------------------------------------------|
D-|-4-----4-----5-----5-----7-----7-----7-----7----------------------------| 

Verse Progression twice

Verse 4

Outro, rock out section.  It's pretty much the same thing as the Intro/Main Riff
Just listen for the rhythms, it really is easy, I promise

D-|-0---------0---------0---------0----------------------------------------|
A-|-0---------0---------0---------0----------------------------------------|
F#|-10h12-----12--------12p10-----10---------------------------------------|
D-|-0---------0---------0---------0----------------------------------------|
A-|------------------------------------------------------------------------|
D-|-12--------12--------11--------11---------------------------------------|

D-|-0----0----0----0----0----0----0----0-----------------------------------|
A-|-0----0----0----0----0----0----0----0-----------------------------------|
F#|-8h10-10p8-8p0--0----3h5--5p3--3p0--0-----------------------------------|
D-|-0----0----0----0----0----0----0----0-----------------------------------|
A-|------------------------------------------------------------------------|
D-|-9----9----9----9----5----5----5----5-----------------------------------|

D-|-0---------0---------0---0---0---0--------------------------------------|
A-|-0---------0---------12--12--12--12-------------------------------------|
F#|-10h12-----12--------10--10--10--10-------------------------------------|
D-|-0---------0---------0---0---0---0--------------------------------------|
A-|------------------------------------------------------------------------|
D-|-12--------12--------11--11--11--11-------------------------------------|

D-|-0-------0----------0--0--0--0------------------------------------------|
A-|-10------9----------5--5--5--5------------------------------------------|
F#|-8-------8----------3--3--3--3------------------------------------------|
D-|-0-------0----------0--0--0--0------------------------------------------|
A-|------------------------------------------------------------------------|
D-|-9-------9----------5--5--5--5------------------------------------------|

Repeat at your discretion, more or less finish repeating this:

D-|-0-------0----------0--0--0--0------------------------------------------|
A-|-10------9----------5--5--5--5------------------------------------------|
F#|-8-------8----------3--3--3--3------------------------------------------|
D-|-0-------0----------0--0--0--0------------------------------------------|
A-|------------------------------------------------------------------------|
D-|-9-------9----------5--5--5--5------------------------------------------|





************************************

| /   slide up
| \   slide down
| h   hammer-on
| p   pull-off
| ~   vibrato
| +   harmonic
| x   Mute note
| b   Bend
| pb  Pre-bend
| br  Bend release
| pbr Pre-bend release
| brb Bend release bend
| t   Right hand Tap

************************************
Tap to rate this tab
 
# A B C D E F G H I J K L M N O P Q R S T U V W X Y Z