Song name
# A B C D E F G H I J K L M N O P Q R S T U V W X Y Z

Mark Lanegan - Carnival tab

1ºGuitar
     A              C        G
e|------------------0--000---3---3--3------------------|
B|---2--2222-2222---5--555---3---3--3------------------|
G|---2--2222-2222---5--555---4---4--4------------------|
D|---2--2222-2222---5--555---5---5--5------------------|
A|---0--0000-0000---3--333---5---5--5------------------|
E|---------------------------3---3--3------------------|

2ºGuitar
     A              C          G
e|------------------0--000-----3-3-3-3-----------------|
B|---2--2222-2222---5--555-----3-3-3-3-----------------|
G|---2--2222-2222---5--555-----4-4-4-4-----------------|
D|---2--2222-2222---5--555-----5-5-5-5-----------------|
A|---0--0000-0000---3--333-----------------------------|
E|-----------------------------------------------------|

Weird sound after:
"...For girls are sad in their eyes"

e|---------------------------------------------|
B|---------------------------------------------|
G|--14--14--14-16-17---16-17-19--19-19-18-14---|
D|---------------------------------------------|
A|---------------------------------------------|
E|---------------------------------------------|


Complains to MaRigOld at Marigolandia@hotmail.com
Tap to rate this tab
# A B C D E F G H I J K L M N O P Q R S T U V W X Y Z