Song name
# A B C D E F G H I J K L M N O P Q R S T U V W X Y Z

Mark Lanegan - The River Rise tab

Help us improve GuitareTab! Take a short survey!
Mark lanegan - The River Rise
from the Hype soundtrack.


e-0-0-0--000-0-0--000-|
b-1-1-1--111-1-1--111-|
g-0-0-0--000-0-0--000-|
d-2-2-2--222-2-2--222-|      8x
a-3-3-3--333-3-3--333-|
e---------------------|

eventually, this part kicks in

e------------|
b------------|
g------------|
d------------|          Repeat for the all the verses
a-0---2---33-|
e------------|


chorus:

e-3-3-3-333-3-3-333-|
b-2-2-2-222-2-2-222-|
g-3-3-3-333-3-3-333-|
d-------------------|         2x
a-------------------|
e-------------------|


e-0-0-0-000-0-0-000-|
b-1-1-1-111-1-1-111-|
g-2-2-2-222-2-2-222-|         2x
d-------------------|
a-------------------|
e-------------------|

that is basically it, it takes a while to get used to the patern of the song.


tabbed by ty righteous
Related for The River Rise tab