Song name
# A B C D E F G H I J K L M N O P Q R S T U V W X Y Z

Mark Lanegan - Skeletal History tab

Artist: Mark Lanegan
Album: Here Comes that Weird Chill EP
Song: Skeletal History

This song consists of four parts (well... three actually), so
instead of using lots of space on repeating the patterns, I'm just
going to show you how to play each one, and you'll be able to 
figure out when to play it by listening to the song.

Tuning: half step down

eb|---------------------|
Bb|---------------------|
Gb|-------9----7----9---|
Db|----10----9----7---7-|
Ab|---------------------|
Eb|-0-------------------|

eb|------------------------------|
Bb|------------------------------|
Gb|------------7-7-7---7-7---7---|
Db|-101010-9---7-7-7---7-7---7---|
Ab|-101010-9---9-9-9---9-9---9---|
Eb|--8-8-8-7-0-------0-----0---0-|

eb|----------|
Bb|----------|
Gb|----------|
Db|-10101010-|
Ab|-10101010-|
Eb|--8-8-8-8-|

Then back to the previous pattern

eb|------------------------------|
Bb|------------------------------|
Gb|------------7-7-7---7-7---7---|
Db|-101010-9---7-7-7---7-7---7---|
Ab|-101010-9---9-9-9---9-9---9---|
Eb|--8-8-8-7-0-------0-----0---0-|

Towards the end Homme starts playing the intro part again

eb|---------------------|
Bb|---------------------|
Gb|-------9----7----9---|
Db|----10----9----7---7-|
Ab|---------------------|
Eb|-0-------------------|

He does that a couple of times, then switches to this, which fades out

eb|--------------------------|
Bb|--------------------------|
Gb|------9-----7-----5-----4-|
Db|---10-----9-----7-----7---|
Ab|--------------------------|
Eb|-0------0-----0-----0-----|


And cut. Enjoy.


Tabbed by Thomas Rasmussen
Tap to rate this tab
 
# A B C D E F G H I J K L M N O P Q R S T U V W X Y Z