Song name
# A B C D E F G H I J K L M N O P Q R S T U V W X Y Z

Mark Lanegan - Strange Religion tab

                                  Intro


e|-------------------------------------------------------------------------|
B|-------------------------------------------------------------------------|
G|---8-----8-----8-----8-----8-----8-----9-----9-----8-----8-----6-----9---|
D|--9-9---9-9---9-9---9-9---9-9---9-9---9-9---9-9---9-9---9-9---7-7---9-9--|
A|-9---9-9---9-9---9-9---9-9---9-9---9-7---7-7---7-9---9-9---9-7---7-7---7-|
E|7-----7-----7-----7-----7-----7-----0-----0-----7-----7-----5-----0-----0|

                                  Verse
                                 
e|-------| |----------------------------------------------------------------|
B|-------| |----------------------------------------------------------------|
G|---9---| | --8-----8-----8-----8-----9-----9-----6-----9-----9-----8------|
D|--9-9--| | -9-9---9-9---9-9---9-9---9-9---9-9---7-7---9-9---9-9---9-9-----|
A|-7---7-| | 9---9-9---9-9---9-9---9-7---7-7---7-7---7-7---7-7---7-9---9----|
E|0------| |7-----7-----7-----7-----0-----0-----5-----0-----0-----7-----7---|
... "some Strange religion"
                             you play this^ for the rest of the song.

this is my first tab and I'm sorry if it isn't completely accurate, but enjoy! 






Tap to rate this tab
 
# A B C D E F G H I J K L M N O P Q R S T U V W X Y Z