Guitaretab - guitar tabs
Song name
# A B C D E F G H I J K L M N O P Q R S T U V W X Y Z

Mark Lanegan - Sideways In Reverse tab

-------------------------------------------------------------------------------
			Sideways In Reverse  Mark Lanegan
-------------------------------------------------------------------------------

Tabbed by: brian_s
Email: branimir.sremec@kc.t-com.hr


VERSE:
e---------------------------------------------------------------------|
B---------------------------------------------------------------------|
G---------------------------------------------------------------------|
D---------------------------------------------------------------------|
A---8-8--6-6--8-8--6-6--8-8--6--8-8-----------------------------------|
D---8-8--6-6--8-8--6-6--8-8--6--8-8-----------------------------------|


CHORUS:
e---------------------------------------------------------------------|
B---------------------------------------------------------------------|
G---------------------------------------------------------------------|
D---------------------------------------------------------------------|
A---11---11-1313b-11-13b---------------------------------------------|
D---11---11-1313b-11-13b---------------------------------------------|

e---------------------------------------------------------------------|
B---------------------------------------------------------------------|
G---------------------------------------------------------------------|
D---------------------------------------------------------------------|
A---8-8--6-6--8-8--6-6--8-8--6--8-8-----------------------------------|
D---8-8--6-6--8-8--6-6--8-8--6--8-8-----------------------------------|
[ Tab from: http://www.guitaretab.com/m/mark-lanegan/88408.html ]
e---------------------------------------------------------------------|
B---------------------------------------------------------------------|
G---------------------------------------------------------------------|
D---------------------------------------------------------------------|
A---11----11-13-13b-13b-13b-13b-13b----------------------------------|
D---11----11-13-13b-13b-13b-13b-13b----------------------------------|


SOLO:

01:09       (for the rythm play the veres riff)
e---------------------------------------------------------------------|
B---16-16-16-16-16-16-16-16-16-14-14-14-14-14-14-12-12-12-11-11-11----|
G---------------------------------------------------------------------|
D---------------------------------------------------------------------|
A---------------------------------------------------------------------|
D---------------------------------------------------------------------|

01:15       (for the rythm play the veres riff)
e---------------------------------------------------------------------|
B---16-16-16-16-16-16-16-16-16-18-18-18-18-18-18-18-------------------|
G---------------------------------------------------------------------|
D---------------------------------------------------------------------|
A---------------------------------------------------------------------|
D---------------------------------------------------------------------|

01:21       (for the rythm play the chorus riff)
e---------------------------------------------------------------------|
B---------------------------------------------------------------------|
G---11-11-11-11----11-13-13b-11-13------------------------------------|
D---11-11-11-11----11-13-13b-11-13------------------------------------|
A---------------------------------------------------------------------|
D---------------------------------------------------------------------|


And that's as far as I can figure it out.
Related for Sideways In Reverse tab