Song name
# A B C D E F G H I J K L M N O P Q R S T U V W X Y Z

Mark Lanegan - Kingdoms Of Rain tab

Help us improve GuitareTab! Take a short survey!
Mark Lanegan - Kingdoms of rain
Tunning: Standard (E-a-d-g-b-e)
Tabbed By: Richard Rivera (richard0195@yahoo.com)

|-----------------------------------------------------------|
|-----------------------------------------------------------|
|-----6-----6-----------------------------------------------|
|---6-----6-------6-----6-----------------------------------| (play 3x)
|-4-----4-------4-----4-------------------------------------|
|-------------0-----0---------------------------------------|

|-----------------------------------------------------------|
|-----------------------------------------------------------|
|-----4-----4-----------------------------------------------|
|---4-----4-------4-----4-----------------------------------| (play once)
|-2-----2-------2-----2-------------------------------------|
|-------------0-----0---------------------------------------|

|-----------------------------------------------------------|
|-----------------------------------------------------------|
|-----6-----6-----------------------------------------------|
|---6-----6-------6-----6-----------------------------------| (play 2x)
|-4-----4-------4-----4-------------------------------------|
|-------------0-----0---------------------------------------|

|-----------------------------------------------------------|
|-----------------------------------------------------------|
|-----4-----4-----------------------------------------------|
|---4-----4-------4-----4-----------------------------------| (play once)
|-2-----2-------2-----2-------------------------------------|
|-------------0-----0---------------------------------------|


Chours:
|--------------------------------------------------------------------------|
|--------------------------------------------------------------------------|
|-----6-----6-----6-----6------4-----4-----4-----4-------------------------|
|---6-----6-----6-----6------4-----4-----4-----4------4-----4-----4-----4--| (play once)
|-4-----4-----4-----4------2-----2-----2-----2------2-----2-----2-----2----|
|-------------------------------------------------0-----0-----0-----0------|
Related for Kingdoms Of Rain tab