Song name
# A B C D E F G H I J K L M N O P Q R S T U V W X Y Z

Mark Minelli - Big City chords

Highlighted       Show chord diagrams
Artist: Mark Minelli
Song: Big City
Album: Gift Horse
Tabbed by: King Of Suede
E-mail: kingofsuede@verizon.net

Relatively simple song. Listen to the song for the fingerpicking pattern.

Chords used: D, DMaj7, C#dim, Bm, A, G, E

(For C#dim, Ring finger on A string, bar with index, middle finger on high e. 
And note the G on the e string in the Em)
Intro/Verse:
   DMaj7 C#dim Em    A 
e|-5-----3-----3-----0
B|-7-----2-----0-----2
G|-6-----2-----0-----2
D|-7-----2-----2-----2
A|-5-----4-----2-----0
E|-------------0-----0

"Oooh" Section after 1st verse:
   DMaj7 Bm Em
e|-5-----2--3
B|-7-----3--0
G|-6-----4--0
D|-7-----4--2
A|-5-----2--2
E|----------0

Chorus:
   G  Bm D  A
e|-3--2--5--5
B|-3--3--7--5
G|-4--4--7--6
D|-5--4--7--7
A|-5--2--5--7
E|-3--------5

(This is my first tab so e-mail me if anything needs to be improved. If
 anyone has the lyrics, I'd be happy to line the chords up with the words.
 And if anyone is having trouble picking up the picking pattern, e-mail me 
and I'll tab it.)
Tap to rate this tab
 
# A B C D E F G H I J K L M N O P Q R S T U V W X Y Z