Guitaretab - guitar tabs
Song name
# A B C D E F G H I J K L M N O P Q R S T U V W X Y Z

Mark Mothersbaugh - Hit Me Score tab

thirteen soundtrack

well
this song
its awesome

yeah

dunno if its right
but u can change it if u want


e|--------------------------------------------------|
B|--------------------------------------------------|
G|--------------------------------------------------|
D|--7-----6------5-----4----------------------------|
A|--7x12--6x12---5x12--4x12-------------------------|
E|--5-----4------3-----2----------------------------|

[ Tab from: http://www.guitaretab.com/m/mark-mothersbaugh/101071.html ]
then
i dunno if this part its right
e|--------------------------------------------------|
B|--------------------------------------------------|
G|--------------------------------------------------|
D|--4----7----5----7--6--5--------------------------|
A|--4x2--7x2--5x2--7--6--5--------------------------|
E|--2----5----3----5--4--3--------------------------|



after that 
u play the intro again

e|-------------------------------------------------|
B|-------------------------------------------------|
G|-------------------------------------------------|
D|--7-----6-----5-----4----------------------------|
A|--7x12--6x12--5x12--4x12-------------------------|
E|--5-----4-----3-----2----------------------------|
P.M.........................






hope u join it

thanks


ahhh by the way
this is my first tab

so
forgive me if some parts aren't correct

thanks again
Related for Hit Me Score tab
×
Hit Me Score