Song name
# A B C D E F G H I J K L M N O P Q R S T U V W X Y Z

Mark Mothersbaugh - The Life Aquatic Neds Theme Take 1 tab

This is how I play it...the voicing may actually be a little different,
but the melody and chords themselves are definitely correct. 


    A     Bm   A     D    C     G    C     D 
e--------------------2--0---3-2--------0-0-0---|
B-----0-2-3--0---2-3-3----------3--0-------3---|
G---2-----0----2-----2----0-----0----0-----2---|
D---2-----0----2-----0----2----------2-----0---|
A---0-----2----0----------3----------3---------|
E-------------------------------3--------------|
  
      G     C     F     G    A     D     A E  A  F  C  A 
e---2-3-2-0-7----------------------------------------------|
B-----3--------10-8-6------1-2-3-2-3-2-3-2-1---------------|
G-----0---------------9-7----2-----2-----2-2--2--2---------|
D-----------------------5----2-----0-----2-0-----3--2------|
A-----------------8----------0----------------0-----3--0---|
E-----3-----8----------------------------------------------|

Enjoy! 
Tap to rate this tab
# A B C D E F G H I J K L M N O P Q R S T U V W X Y Z