Song name
# A B C D E F G H I J K L M N O P Q R S T U V W X Y Z

Mark Rosas - Im Just Not Over You tab

-----------------------------------------------------------------
I'M JUST NOT OVER YOU - Mark Rosas
Written/Produced by: Mark Rosas
Standard Tuning | Tempo 133 bpm
-----------------------------------------------------------------
VERSES (As Produced)
Notes on "G" are palm muted double time
e|-------------------------------------------------------------------|
B|-3-3-3-1-0---------------------------------------------------------|
G|-----------0-2(TIMES 8)-4(TIMES 8)-0(TIMES 16)----------[]V[]-----|
D|-------------^start of words---------------------------------------|
A|-------------------------------------------------------------------|
E|-------------------------------------------------------------------|

VERSES (Chords)
"I took your hand"                                             _
e|-0--3--------------------------------------------------------------|
B|-1--3--0-----------------------------------------------------------|
G|-2--4--0------------------------------------------------[]V[]-----|
D|-2--5--0-----------------------------------------------------------|
A|-0--3--2-----------------------------------------------------------|
E|-------3-----------------------------------------------------------|

CHORUS
             "Tell Me"      "Why I"               "I'm just not over you"
e|---------------------------------------------------------------|
B|-----------5-------------5-3------------5-3--------------------|
G|-----------5-------------5-4------------5-4--------------------|
D|-----------3-------------3-2------------3-2----0-2-0-----------|
A|-0-0-2-2-3-0--0-0-2-2-3--0-0--0-0-2-2-3-0-0---0-----3-0--------|
E|---------------------------------------------------------------|

POST CHORUS
                                    "Tell me Tell me why"
e|-5-7-------5-7----7-----5-7-------5-7-------7------------------|
B|-6-8-10----6-8-10-8-----6-8-10----6-8-10----8------------------|
G|-5-7-10----5-7-10-7-----5-7-10----5-7-10----7------------------|
D|-7-9-10----7-9-10-9-----7-9-10----7-9-10----9------------------|
A|-5-7-8-----5-7-8--7-----5-7-8-----5-7-8-----7------------------|
E|---------------------------------------------------------------|



BRIDGE
"I need to face it baby"
e|-------3------------------------------------------------------|
B|-5--5--3------------------------------------------------------|
G|-5--5--4------------------------------------------------------|
D|-3--7--5------------------------------------------------------|
A|-0--7--5------------------------------------------------------|
E|-------3------------------------------------------------------|

Get more at MarkRosas.com
Tap to rate this tab
# A B C D E F G H I J K L M N O P Q R S T U V W X Y Z