Song name
# A B C D E F G H I J K L M N O P Q R S T U V W X Y Z

Mark Schultz - Come Thou Fount Of Every Blessing tab

Come Thou Fount - Mark Schultz
capo 1
E---------------------------------0-------------------------|
B--0--------------0-3---------0-3------3---0----------------|
G----0h2-0------------2----------------------2-0-----0------|
D----------0---0--------0---0--------2---2-------0----------|   x2
A---------------------------------3-------------------------|
E--------3---3--------2---2--------------------3---3--------|


E----0h2-3----2---0---0-----------0h2-3----2---0---3-----|
B--3--------0---0----3---3-0----3-------0----0---3-------|
G--------------------------------------------------0-----|
D--------2----------------------------2------------------|
A-----------------3----------------------------3---------|
E--------------------------3-----------------------------|

repeat though as many times as necessary
Tap to rate this tab
 
# A B C D E F G H I J K L M N O P Q R S T U V W X Y Z