Song name
# A B C D E F G H I J K L M N O P Q R S T U V W X Y Z

Mark Tremonti - Brains tab

-------------------------------------------------------------------------------
                            Brains- Mark Tremonti
-------------------------------------------------------------------------------
Tabbed by: Bradf987
- I honestly don't care if you use this Intro if you tab the whole song, I just
ask you give me credit for this part.

Tuning: Guitar 1 $ 2- Drop B
Through this, let it all ring. Only one guitar plays this part, Twice.

Db|---------------------------------------------------------------------------|
G#|-----------------------------------3---------------------------------------|
E |---1-2----------1-----------1-2----------1---------------------------------|
B |------------------0--------------------------------------------------------|
F#|---------------------------------------------------------------------------|
B |-0---------000----------000------------0-----------------------------------|

At 0.22, both guitar plays...

Db|---------------------------------------------------------------------------|
G#|---------------------------------------------------------------------------|
E |---------------------------------------------------------------------------|
B|----------------------------------------------------------------------------|
F#|-------------------------5-------------------------------------------------|
B |-000-000-000-000--0-0-0-0----000-000-000-000--0-0-0h1----------------------|
These are really fast triplets, Play this twice.


Db|------------------------------------------------------------------------------|
G#|-------------9----------------------------------------------------------------|
E |------7------7----------------------------------------------------------------|
B|-------------------------------------------------------------------------------|
F#|------5------5----------------------------------------------------------------|
B |--0-------------------xx-8-x-7------------------------------------------------|
For this, you can figure out the strumming pattern, I'm just writing the fret numbers. 
Play this 4 times.
Tap to rate this tab
# A B C D E F G H I J K L M N O P Q R S T U V W X Y Z