Song name
# A B C D E F G H I J K L M N O P Q R S T U V W X Y Z

Mark Tremonti - New Way Out tab

Mark Tremonti - New Way Out
From "All I Was" Solo record
tuning: B F# B F# B B, low to high (like Creed's "Rain")
tabbed by jjhand



Verse Riff - Clean tone, most strums played lightly except
             where high b strings play

    ^                    ^     ^    ^    ^
b |-0--------------------0-|---0----0----0------|
b |-0--------------------0-|---0----0----0------|
F#|-7/9--9--9--9--9--9--12-|---9---12---14------|
B |-0-0--0--0--0--0--0---0-|---0----0----0----4-|
F#|-7/9--9--9--9--9--9--12-|---9---12---14----2-|
B |-0-0--0--0--0--0--0---0-|---0----0----0------|

|------0------------0-|------0----------0-------|
|------0------------0-|------0----------0-------|
|------0------------0-|------0----------0-------|
|---4------4--4--4----|---4-------4--4-----4p0--|
|---2------2--2--2----|---2-------2--2-----2p0--|
|---------------------|-------------------------|

|-0-------0-----------0-|---0----0----0------|
|-0-------0-----------0-|---0----0----0------|
|-7/9--9--10\9--9----12-|---9---12---10\7/9--|
|-0-0--0--0-----0-----0-|---0----0----0------|
|-7/9--9--10\9--9----12-|---9---12---10\7/9--|
|-0-0--0--0-----0--0--0-|---0----0----0------|

|------0------------0-|------0----------0-------|
|------0------------0-|------0----------0-------|
|------0------------0-|------0----------0-------|
|---4------4--4--4----|---4-------4--4-----4p0--|
|---2------2--2--2----|---2-------2--2-----2p0--|
|---------------------|-------------------------|


"Tired of losing, losing faith
Seems that its harder, harder to fight through each day
save us from breaking, breaking down, but how?
Can we restore how it was, or is it gone... gone?"



End of Verse 1, Guitar 2 plays 2 notes (0:56)

|---------------------------------|
|-21~~----------------------------|
|----21~~~~-----------------------|
|---------------------------------|
|---------------------------------|
|---------------------------------|





Chorus (Dist tone):

"Here today and gone tomorrow
Hope that there's just some other way out
Fighting too long to be the last to know
I hope that there's just some other way... Oh"

|-0--0--0--0--0--0--0--0--|-0--0--0--0----0--0----|
|-0--0--0--0--0--0--0--0--|-0--0--0--0----0--0----|
|-0--0--0--0--0--0--0--0--|-0--0--0--0----0--0--4-|
|-9--9--9--9--9--9--9--9--|-4--4--4--5----5--5--0-|
|-9--9--9--9--9--9--9--9--|-4--4--4--5----5--5--4-|
|-9--9--9--9--9--9--9--9--|-4--4--4--5----5--5--0-|

|-0--0--0--0--0--0--0--0--|----0--0--0--0--0--0--0-|
|-0--0--0--0--0--0--0--0--|----0--0--0--0--0--0--0-|
|-5--5--5--5--5--5--5--7--|----7--7--7--7--7--7--7-|
|-4--4--4--4--4--4--4--7--|----7--7--7--7--7--7--7-|
|-5--5--5--5--5--5--5--4--|----4--4--4--4--4--4--4-|
|-0--0--0--0--0--0--0--0--|------------------------|

repeat chorus but hold ^ instead of strumming



Resume Verse Riff

Before Second Verse, Guitar 2 plays

Riff 3
|---------------------------------|
|----12----11-----9-----7~~-------|
|-/9----\7-----\5-----4-----------|
|---------------------------------|
|---------------------------------|
|---------------------------------|

Verse Lyrics:

"Chasing the memories of our past
These are the moments that we hold
But they fail to last
Decided I'm leaving, leaving now but how?
Can we find nowhere to go?
And are we lost? Lost..."


Guitar 2 plays riff 3 during last line of lyrics



Play Chorus Again (same Lyrics)



Bridge - play through first 4 bars 2x



Both guitars
|--0---0---0---0---0---0---0---0-|-----0---0---0---0---0---0---0--|
|--0---0---0---0---0---0---0---0-|-----0---0---0---0---0---0---0--|
|--0---0---0---0---0---0---0---0-|-----0---0---0---0---0---0---0--|
|-10--10--10--10--10--10--10--12-|-----12--12--12--12--12--12--12-|
|-10--10--10--10--10--10--10--10-|-----10--10--10--10--10--10--10-|
|-10--10--10--10--10--10--10---9-|-----9---9---9---9---9---9---9--|

1. Still we must carry on
2. And let's try not to waste


Guitar 1
|-0--0--0--0--0--0--0--0--|----0--0--0--0--0--0--0-|
|-0--0--0--0--0--0--0--0--|----0--0--0--0--0--0--0-|
|-5--5--5--5--5--5--5--7--|----7--7--7--7--7--7--7-|
|-4--4--4--4--4--4--4--7--|----7--7--7--7--7--7--7-|
|-5--5--5--5--5--5--5--4--|----4--4--4--4--4--4--4-|
|-0--0--0--0--0--0--0-----|------------------------|
|
|
|-------------------------|----------------|
|-------------------------|----------------|
|-same as above--------7--|-(7)\4~~~~~-----|
|-------------------------|----------------|
|-------------------------|----------------|
|-------------------------|----------------|

1. 'Cause we've come so far, yeah, we've won before
2. Waste one moment, let's try today...        Whoa



Bridge Ending

  Guitar 1
|--0---0---0---0---0---0---0---0-|----(0)----|--0----|
|--0---0---0---0---0---0---0---0-|----(0)----|--0----|
|--0---0---0---0---0---0---0---0-|----(0)----|--0----|
|-10--10--10--10--10--10--10--12-|---(12)----|--0----|
|-10--10--10--10--10--10--10--10-|---(10)----|--0----|
|-10--10--10--10--10--10--10---9-|----(9)----|--0----|
|
| Guitar 2
|--------------------------------|-----------|
|--------------------------------|-----------|
|-3___________________3b4r3----2-|----(2)----|
|--------------------------------|-----------|
|--------------------------------|-----------|
|--------------------------------|-----------|

"Take back what we've lost____________________"





Guitar 1 plays Verse Riff, Guitar 2 plays:

2:59
|-----------------|---------------|
|-19b21~~~~~~~~~~-|-12~~----------| play riff 3 again
|-----------------|---------------| with pedal effects
|-----------------|---------------|
|-----------------|---------------|
|-----------------|---------------|



Play Chorus for 8 bars



Wah Solo - Other Guitar plays Chorus Chords throughout

|------------------------------|--------------------------------|
|-7---9---11---11-/14-12-12-14-|-14-14-14-14-14-12-12~~---------|
|------------------------------|--------------------------------|
|-7---9---11---11-/14-12-12-14-|-14-14-14-14-14-12-12~~------11-|
|------------------------------|------------------------12-14---|
|------------------------------|--------------------------------|


|------------------------------------------|
|----------------------------------16------|
|------------------------------------12-14-|
|-12----11-12----11-12--14-11-12-14--------|
|-----14-------14--------------------------|
|------------------------------------------|


|-------------------------------------------|
|-16--------12-14--12--14-/16PH-16-16p14p12-|
|---12-14-16-----16-------------------------|
|-------------------------------------------|
|-------------------------------------------|
|-------------------------------------------|


|------------------------------------|-----------------------------|
|-PH14b16r-----12--16p12---12----12--|------12---------------------|
|------------12--12-----12-12h14-12--|------12---------------------|
|--------------------------12----12--|-14b16__r14-12--12-14-----11-|
|------------------------------------|--------------14--------14---|
|------------------------------------|-----------------------------|


|--------------------------------------------------------|
|-----------------------------12-14-12--12-14-16-14-12---|
|-------------12--14-12--14-16--------16--------------16-|
|-12--12h14-16---------16--------------------------------|
|--------------------------------------------------------|
|--------------------------------------------------------|


|----------------------------------------------------------|
|-12p11--12p11------12p11-------------12p11----------------|
|------12-----12---------12----------------12--------------|
|---------------12---------14p12-------------14p12---------|
|-------------------------------14-12-------------12-14~~~-|
|----------------------------------------------------------|



Ending - play Chorus Chords again 2x through like 1st chorus

Lyrics:
"Go find your way out now)
Hope that there's just some other way out
(Go find your way out now)
Hope that there's just some other way..."


KEY
************************************

| /   slide up
| \   slide down
| h   hammer-on
| p   pull-off
| ~   vibrato
| PH  pinch harmonic
| ()  hold note/chord into next bar
| b   Bend
| r   Bend release
| __  Hold note before a bend or hammer-on/pull-off

************************************
Tap to rate this tab
 
# A B C D E F G H I J K L M N O P Q R S T U V W X Y Z