Song name
# A B C D E F G H I J K L M N O P Q R S T U V W X Y Z

Mark Tremonti - Guitar Asylum Riff tab

-----------------------------------------------------------------
Em Pentatonic Lick - Mark Tremonti
-----------------------------------------------------------------
Tabbed by:GeorgeAlex
Email: georgetheguitarist97@gmail.com

Tuning: Standard

http://youtu.be/9Sa_prdpxdc
0:18 - 1:02

e|-17-16b17r16---------------------------------------------------|
B|--------------17-15-12-----------------------------------------|
G|-----------------------14-13b14r13-----------------------------|
D|-----------------------------------14-12-----------------------|
A|-----------------------------------------14-12-11b12r11-10-----|
E|------------------------------------------------------------12-|

e|---------------------------------------------------------------|
B|---------------------------------------------------------------|
G|---------------------------------------------------------------|
D|-------------------------2-2-----------------------------------|
A|--------10----10b12~~----2-2-----------------------------------|
E|--10-12---12~------------0-0-----------------------------------|


| /  slide up
| \  slide down
| h  hammer-on
| p  pull-off
| ~  vibrato
| +  harmonic
| x  Mute note

Tap to rate this tab
# A B C D E F G H I J K L M N O P Q R S T U V W X Y Z