Song name
# A B C D E F G H I J K L M N O P Q R S T U V W X Y Z

Mark Tremonti - All I Was tab

-----------------------------------------------------------------
SONG NAME - Band Name
-----------------------------------------------------------------
Tabbed by:GeorgeAlex
Email: georgetheguitarist97@gmail.com

Tuning: Drop Db

http://www.youtube.com/watch?v=rTWldVGqvZU

This tab doesn't include the solo. 
Sorry, I'm still working on that.

INTRO

eb|---------------------------------------------------------------|
Bb|---------------------------------------------------------------|
Gb|---------------------------------------------------------------|
Db|--------------------------------------12-12-12---7-------------|
Ab|--0-0---------------------------------8--8--8----3-------------|
Db|--0-0--13-12-10-12-13--1012131210-----8--8--8----3---000000----|
                
eb|---------------------------------------------------------------|
Bb|---------------------------------------------------------------|
Gb|---------------------------------------------------------------|
Db|--------------------12-12-12---7-------------------------------|
Ab|--0-0-0--1p0---------8--8--8---3-------------------------------|
Db|--0-0-0------3p0-----8--8--8---3---6-5-0-3-2-0-----------------|
                                    
eb|---------------------------------------------------------------|
Bb|---------------------------------------------------------------|
Gb|---------------------------------------------------------------|
Db|-------13-12-10-12-13--1012131210-----12-12-12---7-------------|
Ab|--0-0---------------------------------8--8--8----3-------------|
Db|--0-0---------------------------------8--8--8----3---000000----|
                                
eb|---------------------------------------------------------------|
Bb|---------------------------------------------------------------|
Gb|---------------------------------------------------------------|
Db|--------------------12-12-12---7-------------------0-----------|
Ab|--0-0-0--1p0---------8--8--8---3-------------------0-----------|
Db|--0-0-0------3p0-----8--8--8---3---6-5-0-3-2-0-----0-----------|
                               
Use the volume knob to reduce the gain before the verse

VERSE RIFF

The verse starts as soon as the D power chord is played midway

eb|---------------------------------------------------------------|
Bb|---------------------------------------------------------------|
Gb|---------------------------------------------------------------|
Db|-14b15r14-10---------------------------------------------------|
Ab|-------------12-10/7b8r7---------------------------------------|
Db|-------------------------10-8-7--------------------------------|

CHORUS

eb|---------------------------------------------------------------|
Bb|---------------------------------------------------------------|
Gb|---------------------------------------------------------------|
Db|--------------------------------------12-12-12---7-------------|
Ab|--0-0---------------------------------8--8--8----3-------------|
Db|--0-0--13-12-10-12-13--1012131210-----8--8--8----3---000000----|
                
eb|---------------------------------------------------------------|
Bb|---------------------------------------------------------------|
Gb|---------------------------------------------------------------|
Db|--------------------12-12-12---7-------------------------------|
Ab|--0-0-0--1p0---------8--8--8---3-------------------------------|
Db|--0-0-0------3p0-----8--8--8---3---6-5-0-3-2-0-----------------|
                                    
eb|---------------------------------------------------------------|
Bb|---------------------------------------------------------------|
Gb|---------------------------------------------------------------|
Db|-------13-12-10-12-13--1012131210-----12-12-12---7-------------|
Ab|--0-0---------------------------------8--8--8----3-------------|
Db|--0-0---------------------------------8--8--8----3---000000----|
                                
eb|---------------------------------------------------------------|
Bb|---------------------------------------------------------------|
Gb|---------------------------------------------------------------|
Db|--------------------12-12-12---7-------------------0-----------|
Ab|--0-0-0--1p0---------8--8--8---3-------------------0-----------|
Db|--0-0-0------3p0-----8--8--8---3---6-5-0-3-2-0-----0-----------|

SOLO RHYTHM

eb|---------------------------------------------------------------|
Bb|---------------------------------------------------------------|
Gb|---------------------------------------------------------------|
Db|-1-0-0-2-0-0-1-0-0-2-0-0-1-0-0-2-0-0-1-0-0-2-0-0-1-0-0-2-0-0---|
Ab|---------------------------------------------------------------|
Db|---------------------------------------------------------------|

This is just fast alternate-picking and bouncing between the first and second 
frets on the D string

CHORUS

SOLO RHYTHM

Thanks for checking this out.

| /  slide up
| \  slide down
| h  hammer-on
| p  pull-off
| ~  vibrato
| +  harmonic
| x  Mute note
| *   Palm mute
Tap to rate this tab
# A B C D E F G H I J K L M N O P Q R S T U V W X Y Z