Song name
# A B C D E F G H I J K L M N O P Q R S T U V W X Y Z

Mark Wills - Hes A Cowboy tab

Tabbed & Arranged by: Josh Daley

Tuning: E A D G B E

Intro & Interlude:

-----------------------------x----------x------|
-------------------------3---x-3----3---x-3----|
-----------2/4--2--0-----0---x-0----0---x-0----|
-----------0----0-----2--0^2-x-0^2--0^2-x-0^2--|
------0^2----------------3---x-3----3---x-3----|
--0^3------------------------x----------x------|



First & last verse:

---3---3----3----3----|
---3---3----3----3----|
---0---2----0----0----|
---0---0----2----2----|
---x---x----2----3----|
--/3---2----0---------|



Second verse:

--3----3----3----3----|
--3----3----3----3----|
--0----2----0----0----|
--0----0----2----2----|
--x----x----2----3----|
--3----2----0---------|



Chorus:

--3----3-----3--3--3--3-3----3------3---|
--3----3-----3--3--3--3-3----3------3---|
--0----2-----0--0--0--0-0----2------0---|
--0----0----------------0----0----2-2---|
--x----x----x--x-----x--x----x----2-2---|
--3----2----3--2--0--2--3----2----0-0---|

--3----3----3---3-----|
--3----3----3---3-----|
--0----2----0---0-----|
--0----0----2---2-----|
--x----x----2---3-----|
--3----2----0---------|
Tap to rate this tab
# A B C D E F G H I J K L M N O P Q R S T U V W X Y Z