Song name
# A B C D E F G H I J K L M N O P Q R S T U V W X Y Z

Mark With A K - Music Is My Alibi tab

Did this for a friend of mine, thought I'd share it!

e|-------------------------------------------------------|
b|-------16------------12-----------16----14-------------|
g|----13----13------13----15-----13----13----16-15-16-13-|
d|---------------11-----------14-------------------------|
a|-11----------------------------------------------------|
e|-------------------------------------------------------|

e|----------------------------------------14-------------|
b|-------16------------12-----------16-------------------|
g|----13----13------13----15-----13----13----16-15-16-13-|
d|---------------11-----------14-------------------------|
a|-11----------------------------------------------------|
e|-------------------------------------------------------|
Tap to rate this tab
 
# A B C D E F G H I J K L M N O P Q R S T U V W X Y Z