Song name
# A B C D E F G H I J K L M N O P Q R S T U V W X Y Z

Marketa Irglova - The Hill tab

-------------------------------------------------------------------------------
                          THE HILL - Markéta Irglová
-------------------------------------------------------------------------------
Album:                  Once (OST)
Words:                  Markéta Irglová
Music:                  Markéta Irglová
                        http://marketairglovamusic.com/
Copyright:          Markéta Irglová, 2007

Tabbed by:      Philipp Söhnlein 
E-mail:         ultimate-guitar.com@philipp-soehnlein.de
Tuning:         Standard Tuning, Acoustic Guitar, Capo fret 4
Tempo:          72 (except the bridge which is 90)
Time Signature: 3/4

There's also a Guitar Pro version of this tab (including some Strings)
available at 
http://tabs.ultimate-guitar.com/m/marketa_irglova/the_hill_ver2_guitar_pro.htm

Main part based on tabs by Corey C. (I just added the bridge, the transitions 
and the Guitar Pro version): 
http://tabs.ultimate-guitar.com/m/marketa_irglova/the_hill_ver2_tab.htm

Please rate, if you like it! :-)

Legend:
(x): Notes in brackets should be played quite silently and therefore can be 
left out.

Intro / Verse / Refrain:
e |--0-------------------|----------------------|----------------------|
B |--------3-----1-------|--0-----------0-------|--0-----------0-------|
G |-----0-----0-----0----|-----0--2--0-----0----|-----0--2--0-----0----|
D |--2-------------------|--1-------------------|--0-------------------|
A |----------------------|----------------------|----------------------|
E |----------------------|----------------------|----------------------|

e |----------------------|---------------------||
B |--------------0-------|--------------0------||
G |--0-----2-------------|--0-----2------------||
D |-----2-----2-----2----|-----2-----2-----2---||
A |--3-------------------|--3------------------||
E |----------------------|---------------------||

When you transition from one part into another you may abandon the last bar 
and play one of the following transitions instead:
e |----------------------||
B |----------------------||
G |--0-----2----(2)------||
D |-----2----------------||
A |--3-------------------||
E |----------------------||

e |----------------------||
B |----------------------||
G |--0-------------------||
D |----------------------||
A |--3----(3)---(3)------||
E |----------------------||


Bridge:
e |--3-----------5-------|--3-----------5-------|
B |--5-----0-------------|--5-----0-------------|
G |-----0-----0-----0----|-----0-----0-----0----|
D |----------------------|----------------------|
A |----------------------|----------------------|
E |----------------------|----------------------|

e |--2-----0-------------|--2-----0-------------|
B |----(0)-------3-------|----(0)-------3-------|
G |--2-------------(0)---|--2-------------(0)---|
D |----------------------|----------------------|
A |----------------------|----------------------|
E |----------------------|----------------------|

e |--3-----------5-------|--3-----------5-------|
B |--5-----0-------------|--5-----0-------------|
G |-----0-----0-----0----|-----0-----0-----0----|
D |----------------------|----------------------|
A |----------------------|----------------------|
E |----------------------|----------------------|

e |--2-----0-------------|--2-------------------|
B |----(0)-------3-------|----(0)(3)------------|
G |--2-------------(0)---|--2-------------------|
D |----------------------|----------------------|
A |----------------------|----------------------|
E |----------------------|----------------------|


Outro:
e |--0-------------------|----------------------|----------------------|-------||
B |--------3-----1-------|--0-----------0-------|--0-----------0-------|-------||
G |-----0-----0-----0----|-----0--2--0-----0----|-----0--2--0-----0----|--0----||
D |--2-------------------|--1-------------------|--0-------------------|-------||
A |----------------------|----------------------|----------------------|--3----||
E |----------------------|----------------------|----------------------|-------||
Tap to rate this tab
 
# A B C D E F G H I J K L M N O P Q R S T U V W X Y Z