Song name
# A B C D E F G H I J K L M N O P Q R S T U V W X Y Z

Marko Perkovic Thompson - Dan Dokazi chords

Highlighted       Show chord diagrams
Gm            D#     F     Gm
Ljeto, jesen, zimu i proljeće,
A#      F            Gm   
sve to jedan život nosi.
Gm          D#    F     Gm
Kada s neba anđeo dolijeće,
A#         F         D#
rađamo se i odemo bosi.

A#            F
Zbogom, nebo plavo,
A#          F
i mog doma rosna travo,
A#          F          D#         
dobri moji prijatelji svi,
              F
zbogom, ljubavi.

A#   F    Gm D#
Dan dolazi,
A#         F         Gm   D#
za heroje i sirotinju.
A#   F   Gm D#   
Dan dolazi,
A#          F           D#
da se spase koji vjeruju,

zapjevajmo,
A#  F     Gm
dan dolazi.

SOLO

  Gm        A#    F       D#
E --------------------------------------
B -15 15-13-15-11-13-11-10-11-10--------
G --------------------------------12-10-
D --------------------------------------
A --------------------------------------
E --------------------------------------

   Gm        A#    F       D#
E -----------------------------13-------------
B -15 15-13-15-11-13--13-15-16----16-15-13-11-
G --------------------------------------------
D --------------------------------------------
A --------------------------------------------
E --------------------------------------------


E --------------------------------------
B -15 15-13-15-11-13-11-10-11-10--------
G --------------------------------12-10-
D --------------------------------------
A --------------------------------------
E --------------------------------------


E -----------------------------------
B -15 15-15-13-13-11-10-----11-10----
G ----------------------10--------12-
D -----------------------------------
A -----------------------------------
E -----------------------------------

Kada zora rano zamiriše,
ja je neću vidjet više,
a kad divlje ruže procvjetaju,
raduju se koji znaju.

Zbogom, nebo plavo,
i mog doma rosna travo,
dobri moji prijatelji svi,
zbogom, ljubavi.

Dan dolazi,
za heroje i sirotinju.
Dan dolazi,
da se spase koji vjeruju,       
zapjevajmo,
dan dolazi.

SOLO

Dan dolazi,
za heroje i sirotinju.
Dan dolazi,
da se spase koji vjeruju,       X2
zapjevajmo,
dan dolazi.

Solo


  Gm        A#    F       D# 
E ------------------------------------------------
B -11-10---11----11-13-10-11---11-10----11-10-----
G -----------12----------------------10--------12-
D ------------------------------------------------
A ------------------------------------------------
E ------------------------------------------------
Tap to rate this tab
 
# A B C D E F G H I J K L M N O P Q R S T U V W X Y Z