Song name
# A B C D E F G H I J K L M N O P Q R S T U V W X Y Z

Markus Hook Roll Band - Goodbye Jane tab

Highlighted       Show chord diagrams
-----------------------------------------------------------------------------
                             Goodbye Jane - Markus Hook Roll Band
-----------------------------------------------------------------------------

Tabbed By: Me.

By: H.Vanda/G.Young

Album: Tales Of Old Grand-Daddy

Awesomness:High.!
------------------------
Notes:
They don't have an Official site since there was not much internet in 1970.
This was the first band that Angus & Malcolm Young of AC/DC played in.
They only released one Album; Tales of Old Grand-Daddy.
---------------------------------------------------------------------------
Song:

Repeat Riff throughout the verses.
|-------------------|
|-----------7-7-----|
|-7-5-7-5-7-7-7-7-5-|
|-7-5-7-5-7-5-5-7-5-|
|-5-3-5-3-5-5-5-5-3-|
|-------------------|


(Lyrics are not accurate)

Well she was born in B?
but she had shabby in her eye
she never knew she had a mother
so she met Charlie in the sky

               D   C    G 
And now it's bye, bye Jane
D     C    G
bye, bye Jane
bye, bye miss Jane

Riff

She's got looks a burning/boiling water
but she's the kind that keeps a cool
she knew she had a ?
and now she wants to act a fool
              D    C    G 
And now it's bye, bye Jane
D     C    G
bye, bye Jane
bye, bye miss Jane

Riff

Solo part.
play D C G under soloing.

She's got her carkeys in a bag
but she's the kind that always loose
and now she's got herself a Sack (?)
an case of elevation blues
              D    C    G 
And now it's bye, bye Jane
bye, bye Jane
bye, bye miss Jane

Piano plays riff once, then guitars join in and plays riff 2 times.


Then the lyrics mostly
continues likes the refrain, but you then play the chords like this:
D:     C:     G:
|------|------|------|
|------|------|------|
|------|------|-7-7-9|
|-7-7-9|-5-5-7|-5-5-5|
|-5-5-5|-3-3-3|------|
|------|------|------|

With variations.
--------------------------------

Corrections are welcome.
Tap to rate this tab
 
# A B C D E F G H I J K L M N O P Q R S T U V W X Y Z