Song name
# A B C D E F G H I J K L M N O P Q R S T U V W X Y Z

Marley Bob - Is This Love tab

-------------------------------------------------------------------------------
			   Is this Love - Bob Marley
-------------------------------------------------------------------------------
Tabbed by:
Email:

Tuning:

e|----2------------------------------------------------------------------------|
B|----2------------------------------------------------------------------------|
G|----2---------2~--------------7--x--6----------------------------------------|
D|--------2--4-----4-----2--4---7--x----7--7--x--6-----------------------------|
A|------4-------------4---------5--x-------7---x----7--------------------------|
E|--2---------------------------------------5--x-------------------------------|

e|----2------------------------------------------------------------------------|
B|----2------------------------------------------------------------------------|
G|----2---------2~--------------7--x--6----------------------------------------|
D|--------2--4-----4-----2--4---7--x----7--7--x--6-----------------------------|
A|------4-------------4---------5--x-------7---x----7--------------------------|
E|--2---------------------------------------5--x-------------------------------|

e|----2-------------------------------------------------------------------------|
B|----2-------------------------------------------------------------------------|
G|----2---------2~------2--4--7-----------4h6--7--7p6-7p6-----------------------|
D|--------2--4-----4----------7-----4--7-------7------------7/2-----------------|
A|------4-------------4-------5---5---------------------------------------------|
E|--2---------------------------------------------------------------------------|

e|----2------------------------------------------------------------------------|
B|----2------------------------------------------------------------------------|
G|----2---------2~--------------7--x--6----------------------------------------|
D|--------2--4-----4-----2--4---7--x----7--7--x--6-----------------------------|
A|------4-------------4---------5--x-------7---x----7--------------------------|
E|--2---------------------------------------5--x-------------------------------|

      (x8)      (x1)     (x7)
e|---4-----3-----2---------------------------------------------------------------|
B|---5-----4-----3---------------------------------------------------------------|
G|---4-----3-----2----Repeat Twice-----------------------------------------------|
D|---6-----5-----4---------------------------------------------------------------|
A|---4-----3-----2---------------------------------------------------------------|
E|---4-----3-----2------------------2--10/3--------------------------------------|

e|----2---------------------------------------------------------------2---------|
B|----2---------------------------------------------------------------2---------|
G|----2---------2~------2--4--7-----------4h6--7--7p6-7p6-----------2-----------|
D|--------2--4-----4----------7-----4--7-------7------------7/2-----------------|
A|------4-------------4-------5---5---------------------------------------------|
E|--2-------------------------------------------------------------2-------------|

| /  slide up
| \  slide down
| h  hammer-on
| p  pull-off
| ~  vibrato
| +  harmonic
| x  Mute note
=============================================================
Tap to rate this tab
# A B C D E F G H I J K L M N O P Q R S T U V W X Y Z