Song name
# A B C D E F G H I J K L M N O P Q R S T U V W X Y Z

Marley Bob - Johnny Was tab

-------------------------------------------------------------------------------
			     JOHNNY WAS - Stiff Little Fingers
-------------------------------------------------------------------------------
Tabbed by: Gregory Stone
Email: Gregcityrocker@yahoo.com

Tuning: Normal

Intro
e|----------------------------------------------------------|
B|----------------------------------------------------------|
G|----------------------------------------------------------|
D|-22---22---22---22--222222222222222222222222222222222222--|
A|-22---22---22---22--222222222222222222222222222222222222--|
E|----------------------------------------------------------|

e|----------------------------------------|
B|----------------------------------------|
G|-----2------2------2------2----------2--|x2
D|-2-4-2--2-4-2--2-4-2--2-4-2--2-4-2-4-2--|
A|-2-4----2-4----2-4----2-4----2-4-2-4----|
E|----------------------------------------|

e|-----------------------------------------------------------|
B|-----------------------------------------------------------|
G|-5-4-2---5-4-2---5-4-2---5-4-2--2-4^-2---------2--------2--|
D|-------4-------4-------4------4--------2-4-2-4---2-4-2-4---|
A|-----------------------------------------------------------|
E|-----------------------------------------------------------|

Verse

e|---------------------------------------------------------------------------------|
B|---------------------------------------------------------------------------------|
G|--------7----6---1----7---6------------------------------------------------------|
D|-4------7----6---2----7---6--4---------------------------------------------------|
A|-4------5----4---2----5---4--4---------------------------------------------------|
E|-2---------------0-----------2---------------------------------------------------|

Mid Verse

e|--------------------------|
B|--------------------------|
G|-----2-----2-----2-----2--|
D|-2-4-2-2-4-2-2-4-2-2-4-2--|
A|-2-4---2-4---2-4---2-4----|
E|--------------------------|

Chorus
e|----------------------------------------------------------------------------------|
B|----------------------------------------------------------------------------------|
G|-------6--------------------------------------------------------------------------|
D|-7--9--6--9-----------------------------------------------------------------------|
A|-7--9--4--9-----------------------------------------------------------------------|
E|-5--7-----7-----------------------------------------------------------------------|

Intro
Verse
Mid Verse
Verse
Mid Verse
Chorus
Mid Verse
Verse
Mid Verse
Verse
Mid Verse
Chorus


| /  slide up
|   slide down
| h  hammer-on
| p  pull-off
| ~  vibrato
| +  harmonic
| x  Mute note
===============================================================================
Tap to rate this tab
# A B C D E F G H I J K L M N O P Q R S T U V W X Y Z