Song name
# A B C D E F G H I J K L M N O P Q R S T U V W X Y Z

Marley Bob - Stir It Up tab

Help us improve GuitareTab! Take a short survey!
-------------------------------------------------------------------------------
			     Stir it up - Bob Marley
-------------------------------------------------------------------------------
Tabbed by: Cullen 
Email:springsteen12@hotmail.com or AIM springsteen1264

timigs alittle off


e|------------------------------------------------------------------5----7---|
B|------------------------------------7--------------(7)--9---------7----9---|
G|---9---(9)----7----6----------------7--------------(7)--9------------------|
D|-------------------------7-------------------------------------------------|
A|---------------------------------------------------------------------------|
E|---------------------------------------------------------------------------|

e|---------------------------------------------------------------------------|
B|---------------------------------------------------------------------------|
G|-----------------------------------------2-----------------4----x---2------|
D|-7---------------------------------4------------2----6---------------------|
A|--------4------4--5-----4-----5-------------5------------------------------|
E|---------------------------------------------------------------------------|

e|---------------------------------------------------------------------------|
B|---------------------------------------------------------------------------|
G|--2-------------------------------------------------2----------------------|
D|--------------------------------------------4-------------------2------6---|
A|----------4-----4--5------4------4-----5--------------------5--------------|
E|---------------------------------------------------------------------------|

e|---------------------------------------------------------------------------|
B|---------------------------------------------------------------------------|
G|----4---------x---2--------------------------------------------------------|
D|---------------------------------------------------------------------------|
A|---------------------------------------------------------------------------|
E|---------------------------------------------------------------------------|
Related for Stir It Up tab