Song name
# A B C D E F G H I J K L M N O P Q R S T U V W X Y Z

Marlon Roudette - New Age tab

e|-----------------------|-------------------------|-----------------------|
h|-------15-13-----13    |-------------------------|-------15-13-----13  --|
G|-------------15--------|---------15-14-----------|---------------------14|
D|-----------------------|---------------17-15     |-----------------------|
A|-----------------------|-------------------------|-----------------------|
E|-----------------------|-------------------------|-----------------------|
   1     2         3    4| 1       2         3    4| 1     2         3    4| 
e|-----------------------|
h|-----------------------|
G|-14-15-----------------|
D|-----------------------|
A|-----------------------|
E|-----------------------|
   1      2        3    4
Tap to rate this tab
# A B C D E F G H I J K L M N O P Q R S T U V W X Y Z