Song name
# A B C D E F G H I J K L M N O P Q R S T U V W X Y Z

Marlon Roudette - New Age tab

this is the keyboard voice at the beginning...or almost ;)

|---------10-8----8~-----------6-5-------------|
|--------------11------------------8-6~--------|
|----------------------------------------------|
|-----8--------------------5-------------------|
|---8--------------------5---------------------|
|----------------------------------------------|


|---------10-8----8~---5-5p6~------------------|
|--------------11------------------------------|
|----------------------------------------------|
|-----8----------------------------------------|
|---8------------------------------------------|
|----------------------------------------------|

standart tuning of course...
Tap to rate this tab
 
# A B C D E F G H I J K L M N O P Q R S T U V W X Y Z