Song name
# A B C D E F G H I J K L M N O P Q R S T U V W X Y Z

Marlow Honey - Through The Window tab

This is the intro to Marlow Honey's Through The Window. I will be adding more as 
soon as I can just have to figure out the rest


Gtr I (E A D G B E) - 'Through The Window'

   4/4
    Gtr I
    
||------------------------------0--||
||o-----------------------------0-o||
||------1---1h2-----2p1-----1---1--||
||--------2-----0-------0h2-----2--||  x2
||o---2-----------2-------------2-o||
||--0-------------------------0-0--||


    
||------------------------------0--||
||o-----------------------------0-o||
||----------1h2-----2p1-----1---1--||
||------2-------0-------0h2-----2--||  x2
||o---2---2-------2-------------2-o||
||--0-------------------------0-0--||

    
||--0---0-------------2-----2-----2-------------------2-----2-----2-----|
||o---0---0-----2-------2-----2-----2---2---2---2-------2-----2-----2---|
||----------------2-------2-----2-----2---2-------2-------2-----2-----2-|
||----------1S2-----2-------------------------2-----2-------------------|
||o---------------------------------------------------------------------|
||----------------------------------------------------------------------|


  
|-----------0-----||
|-2---2-----0----o||
|---2-------1-----||
|-----------2-----||  X2
|-----------2----o||
|-------0-0-0-----||

Then Throughout the first verse the progression is

E Bm A E
Tap to rate this tab
# A B C D E F G H I J K L M N O P Q R S T U V W X Y Z